Ac Dc - Brain Shake Chords & Tabs

 

Brain Shake Chords & Tabs

Ac Dc Chords & Tabs

Version: 1 Type: Tab 0 ratings
1 star 2 stars 3 stars 4 stars 5 stars
comments

Brain Shake Tab

   
Tuning:E,A,D,G,B,E

Brainshake

e|------------------|--------------------|--------------------|
B|------------------|------3-------------|------3-------------|
G|---------------2--|------2----------0--|------2----------2--|
D|---------------2--|------0----------0--|------0----------2--|
A|---------------0--|--------------------|-----------------0--|
E|------------------|-----------------3--|--------------------|

|-----------------------|--------------------------|--------------------|
|-------3---------------|--------------------------|------3-------------|
|-------2---------------|-----------------------2--|------2----------0--|
|-------0------5--5--5--|--5--4--2--0-----------2--|------0----------0--|
|-----------------------|--------------3--2--1--0--|--------------------|
|-----------------------|--------------------------|-----------------3--|

                                                                    
|---------------------|----------------------|--------------------------|
|-------3-------------|------3---------------|--------------------------|
|-------2----------2--|------2---------------|-----------------------2--|
|-------0----------2--|------0------5--5--5--|--5--4--2--0-----------2--|
|------------------0--|----------------------|--------------3--2--1--0--|
|---------------------|----------------------|--------------------------|

|-------------------|------------3--------|------------------|
|-------------------|------------3--3-----|------------------|
|-------------------|------------0--2--2--|------------------|
|-------------------|------------0--0--2--|------------------|
|-------------------|------------------0--|------------------|
|-------------------|------------3--------|------------------|

                    
|-------------------------|------------------|------------3--------|
|-----------------3-------|------------------|------------3--3-----|
|-----0--0--0--0--2----2--|------------------|------------0--2--2--|
|-----0--0--0--0--0----2--|------------------|------------0--0--2--|
|----------------------0--|------------------|------------------0--|
|-----3--3--3--3----------|------------------|------------3--------|

                                         
|-------------------|------------------------|------------------|
|-------------------|----------------3-------|------------------|
|-------------------|----0--0--0--0--2----2--|------------------|
|-------------------|----0--0--0--0--0----2--|------------------|
|-------------------|---------------------0--|------------------|
|-------------------|----3--3--3--3----------|------------------|

|-------------------------|------------------|------------------------|
|-----------------3-------|------------------|----------------3-------|
|-----0--0--0--0--2----2--|------------------|----0--0--0--0--2----2--|
|-----0--0--0--0--0----2--|------------------|----0--0--0--0--0----2--|
|----------------------0--|------------------|---------------------0--|
|-----3--3--3--3----------|------------------|----3--3--3--3----------|

|-------------------|------------------------|------------------|
|-------------------|----------------3-------|------------------|
|-------------------|----0--0--0--0--2----2--|------------------|
|-------------------|----0--0--0--0--0----2--|------------------|
|-------------------|---------------------0--|------------------|
|-------------------|----3--3--3--3----------|------------------|

    
|-------------------------|---------------------|--------------------------|
|-------------------------|---------------------|--------------------------|
|-----0----0--0--0--0--1--|---------------------|-----------------------1--|
|-----0----0--0--0--0--2--|---------------------|-----------------------2--|
|----------------------2--|------------5--5--5--|--5--4--2--0-----------2--|
|-----3----3--3--3--3--0--|---------------------|--------------3--2--1--0--|
[ Tab from: http://www.guitartabs.cc/tabs/a/ac_dc/brain_shake_tab.html ]
                                     
|----------------------|--------------------------|---------------------|
|----------------------|--------------------------|---------------------|
|----------------------|-----------------------1--|---------------------|
|----------------------|-----------------------2--|---------------------|
|-------------5--5--5--|--5--4--2--0-----------2--|------------5--5--5--|
|----------------------|--------------3--2--1--0--|---------------------|

                                                                       
|---------------------------|---------------------|--------------------------|
|---------------------------|---------------------|--------------------------|
|------------------------1--|---------------------|-----------------------2--|
|------------------------2--|---------------------|-----------------------2--|
|---5--4--2--0-----------2--|------------5--5--5--|--5--4--2--0-----------0--|
|---------------3--2--1--0--|---------------------|--------------3--2--1-----|

      
|---------------------|--------------------|----------------------|
|-------3-------------|------3-------------|------3---------------|
|-------2----------0--|------2----------2--|------2---------------|
|-------0----------0--|------0----------2--|------0------5--5--5--|
|---------------------|-----------------0--|----------------------|
|------------------3--|--------------------|----------------------|

                       
|---------------------------|--------------------|--------------------|
|---------------------------|------3-------------|------3-------------|
|------------------------2--|------2----------0--|------2----------2--|
|---5--4--2--0-----------2--|------0----------0--|------0----------2--|
|---------------3--2--1--0--|--------------------|-----------------0--|
|---------------------------|-----------------3--|--------------------|

|-----------------------|--------------------------|------------------|
|-------3---------------|--------------------------|------------------|
|-------2---------------|-----------------------2--|------------------|
|-------0------5--5--5--|--5--4--2--0-----------2--|------------------|
|-----------------------|--------------3--2--1--0--|------------------|
|-----------------------|--------------------------|------------------|


 
|---------------------------|--------------------|--------------------|
|---------------------------|------3-------------|------3-------------|
|------------------------2--|------2----------0--|------2----------2--|
|---5--4--2--0-----------2--|------0----------0--|------0----------2--|
|---------------3--2--1--0--|--------------------|-----------------0--|
|---------------------------|-----------------3--|--------------------|

                                     
|---------------------|--------------------|--------------------|
|-------3-------------|------3----------3--|------3-------------|
|-------2----------0--|------2----------2--|------0----------5--|
|-------0----------0--|------0----------0--|------0----------5--|
|---------------------|--------------------|-----------------3--|
|------------------3--|--------------------|------3-------------|

                                                           
|---------------------|--------------------|--------------------|
|-------3----------3--|------3-------------|------3-------------|
|-------0----------2--|------0----------5--|------0----------2--|
|-------0----------0--|------0----------5--|------0----------2--|
|---------------------|-----------------3--|-----------------0--|
|-------3-------------|------3-------------|------3-------------|

|---------------------|--------------------|--------------------|
|-------3-------------|------3-------------|------3-------------|
|-------2----------0--|------2----------2--|------2----------0--|
|-------0----------0--|------0----------2--|------0----------0--|
|---------------------|-----------------0--|--------------------|
|------------------3--|--------------------|-----------------3--|

|---------------------|---------------------|
|-------3-------------|---------------------|
|-------2-------------|---------------------|
|-------0----------2--|---------------------|
|------------------2--|------------5--5--5--|
|------------------0--|---------------------|

submitted:1/7/05
Comments