Ac Dc - Bonny Chords & Tabs

 

Bonny Chords & Tabs

Ac Dc Chords & Tabs

Version: 3 Type: Tab

Bonny Tab

This is a classic song by AC/DC.  Hope you enjoy it.
****************************************************************************

[ Tab from: http://www.guitartabs.cc/tabs/a/ac_dc/bonny_tab_ver_3.html ]
E|--------------------------------------------------------------------------|
B|------------------------------------5-----5-5-----------------------------|
G|--------4-4-------------------4-4-7---7-7-----7-4-4-7-5-4-----------------|
D|--5-5-7-----7-5---------5-5-5-----------------------------7-5-5-----5-5-5-|
A|----------------7-5-5-7-----------------------------------------5-7-------|
E|--------------------------------------------------------------------------|

E|------------|
B|------------|
G|-4-4--------|
D|----7-5-7-5-|
A|------------|
E-------------|

E|-----------12-------12-12----------------------------|
B|--12-12-15----15-15-------15-12-12-15-13-12----------|
G|--------------------------------------------14-12-12-|
D|-----------------------------------------------------|
A|-----------------------------------------------------|
E|-----------------------------------------------------|

****************************************************************************

by Stevie M