Ac Dc - Big Balls Chords & Tabs

 

Big Balls Chords & Tabs

Ac Dc Chords & Tabs

Version: 4 Type: Tab 0 ratings
1 star 2 stars 3 stars 4 stars 5 stars
comments

Big Balls Tab

Tabbed By:Gibmarauder76

Normal Tunnng
The song is not complicated but is fun to play at parties.

Key:
/=slide

Part 1
E|--------------------------------------
B|--------------------------------------
G|--------------------------------------
D|-----9/5/9/5/9/5/5--22222-------------
A|-----7/3/7/3/7/3/7--44444-------------
E|--------------------------------------
[ Tab from: http://www.guitartabs.cc/tabs/a/ac_dc/big_balls_tab_ver_4.html ]
Part 2
E|--------------------------------------
B|--------------------------------------
G|--------------------------------------
D|-----9--3--9--3--9--3--5--22222-------
A|-----7--5--7--5--7--5--7--44444-------
E|--------------------------------------

Part 3
E|------------------------------------------------------------222--
B|------------------------------------------------------------222--
G|------------------------------------------------------------222--
D|-----9999--8--6666--8--9999--8--6666--8--9999--8--6666--3-5-222--
A|-----7777--6--4444--6--7777--6--4444--6--7777--6--4444--5-7-000--
E|-----------------------------------------------------------------


THE SONG GOES TO THIS ORDER:
Part 1
Part 2
Part 3
Part 2
Part 3
Part 2
Part 3 Repeat To End
Comments