Ac Dc - Big Balls Chords & Tabs

 

Big Balls Chords & Tabs

Ac Dc Chords & Tabs

Version: 1 Type: Tab 9 ratings
1 star 2 stars 3 stars 4 stars 5 stars
comments

Big Balls Tab

song:Big Balls
by: ac/dc 
tabed by:robert m (acdcdoors5@aol.com) I love you so much Jill
  Intro:
E|----------------------|----------------------|----------------------|----------------------|
B|----------------------|----------------------|----------------------|----------------------|
G|--9-------------------|--5-------------------|--9-------------------|--5-------------------|
D|--9----------9--8--7--|--5----------5--7--8--|--9----------9--8--7--|--5----------5--7--8--|
A|--7----------7--6--5--|--3----------3--5--6--|--7----------7--6--5--|--3----------3--5--6--|
E|----------------------|----------------------|----------------------|----------------------|

|----------------------|--------------------|--------------------|--2--2--2--2--2--------|
|----------------------|--------------------|--------------------|--0--0--0--0--0--------|
|--9-------------------|--5-----------------|--------------------|--2--2--2--2--2--------|
|--9----------9--8--7--|--5------------5/---|--7------------7----|--1--1--1--1--1--------|
|--7----------7--6--5--|--3------------3/---|--5------------5----|--2--2--2--2--2--------|
|----------------------|--------------------|--------------------|-----------------------|
 Verse:
|-------------------|--------------------|-------------------|--------------------|
|-------------------|--------------------|-------------------|--------------------|
|--9----------------|--------------------|--9----------------|--------------------|
|--9----------------|--10----------------|--9----------------|--10----------------|
|--7----------------|--10----------------|--7----------------|--10----------------|
|-------------------|--8-----------------|-------------------|--8-----------------|
[ Tab from: http://www.guitartabs.cc/tabs/a/ac_dc/big_balls_tab.html ]
|-------------------|--------------------|-------------------|--2--2--2--2--2--------|
|-------------------|--------------------|-------------------|--0--0--0--0--0--------|
|--9----------------|--------------------|--7----------------|--2--2--2--2--2--------|
|--9----------------|--10----------------|--7----------------|--1--1--1--1--1--------|
|--7----------------|--10----------------|--5----------------|--2--2--2--2--2--------|
|-------------------|--8-----------------|-------------------|-----------------------|
  Chorus:
|-----------------------|-----------------------|-----------------------|-----------------------|
|-----------------------|-----------------------|-----------------------|-----------------------|
|--9----9----9----9--5--|--6----6----6----6--8--|--9----9----9----9--5--|--6----6----6----6--8--|
|--9----9----9----9--5--|--6----6----6----6--8--|--9----9----9----9--5--|--6----6----6----6--8--|
|--7----7----7----7--3--|--4----4----4----4--6--|--7----7----7----7--3--|--4----4----4----4--6--|
|-----------------------|-----------------------|-----------------------|-----------------------|
                                                                                  to verse:
|-----------------------|----------------------|--------------------|---------------------|
|-----------------------|----------------------|--------------------|---------------------|
|--9----9----9----9--5--|--6----6----6----6----|--5--------7--------|---------------------|
|--9----9----9----9--5--|--6----6----6----6----|--5--------7--------|--7----7----9--------|
|--7----7----7----7--3--|--4----4----4----4----|--3--------5--------|--7----7----9--------|
|-----------------------|----------------------|--------------------|--5----5----7--------|

Comments