Ac Dc - Beating Around The Bush Chords & Tabs

 

Beating Around The Bush Chords & Tabs

Ac Dc Chords & Tabs

Version: 1 Type: Tab

Beating Around The Bush Tab

AC/DC - Beating around the bush

|-----------------------|
|-----------------------|
|-----------------------|
|-----------------0-----|  x 2
|-----------1/2---------|
|--0-h3-p0--------------|

[ Tab from: http://www.guitartabs.cc/tabs/a/ac_dc/beating_around_the_bush_tab.html ]
|-----------------------|--------------------------
|-----------------------|--------------------------
|-----------------------|--------------------------
|-----------------0-----|---------------------2----
|-----------1/2---------|--2-p0--------------------
|--0-h3-p0--------------|--------3-0-0-3-0-3-------


|-----------------------|--------------------------
|-----------------------|--------------------------
|-----------------------|--------------------------
|-----------------0-----|---------------2----------
|-----------1/2---------|--2-p0--------------------
|--0-h3-p0--------------|--------3-0-0-------------