Ac Dc - Bad Boy Boogie Chords & Tabs

 

Bad Boy Boogie Chords & Tabs

Ac Dc Chords & Tabs

Version: 1 Type: Tab 0 ratings
1 star 2 stars 3 stars 4 stars 5 stars
comments

Bad Boy Boogie Tab

   
Recommendations:

If you have a Boss ME-8 Multiple Guitar Effect, you're in luck

Group Control
  2      1

Change the tone to 90-100
Use a Silencer
Bad Distortion (Gets you the crappy sound)

Tuning:E,A,D,G,B,E
Angus (G1)-Standard
Malcolm- (G2)-Standard

Tableture Key:
h-hammer on
p-pull off
~-treble

|----------------| Intro
|----------------|
|----2-2-2-2-----| Guitar 1
|----2-2-2-2-----| Let B chord ring
|----0-0-0-0-----|
|----------------|

|-------------------|
|----3--------3-----|
|--2-2-5-2--2-2-5-2-| Riff 2
|--2-0-5-2--2-0-5-2-|
|--0---0-0--0---0-0-|
|-------------------|

|---------------------------|
|---------------------------|
|---7--12-10-7--7--12-10-7--| Riff 3
|---7--12-10-7--7--12-10-7--|
|---5--10-8--5--5--10-8--5--|
|---------------------------|
[ Tab from: http://www.guitartabs.cc/tabs/a/ac_dc/bad_boy_boogie_tab.html ]
|----------------------------|
|----------------------------|
|---9--14-12-9--9--14-12-9---| Riff 4
|---9--14-12-9--9--14-12-9---|
|---7--12-10-7--7--12-10-7---|
|----------------------------|

|----------------------|
|----------------------|
|---5-2---2---2---2-2--| Riff 5
|---5-2---2---2---2-2--|
|---3-0---0---0---0-0--|
|-------3---3---3------|

|-------------------|
|-------------------|
|-------------------| Riff 6
|--7-5--------------|
|------7-6-3h5p3h3--|
|-------------------|

|------------------------|
|------------------------|
|------------------------| Guitar Fill
|------------------------|
|-7~-5~-7~-5~-7~-5~-7~5~-|
|------------------------|

Play these chords over the solo

|---| |---| |---|
|---| |---| |---|
|-2-| |-7-| |---|
|-2-| |-7-| |-2-|
|-0-| |-5-| |-2-|
|---| |---| |-0-|

Play Riff 1 again

Plz Rate my other Tabs

Two's Up (Intro)
That's The Way I Wanna Rock and Roll
Fire Your Guns
Rat Salad
Hand of Doom (ver3)
Killers Blues

ACDC ROCKS!!!
Comments