Ac Dc - Back Seat Confidential Chords & Tabs

 

Back Seat Confidential Chords & Tabs

Ac Dc Chords & Tabs

Version: 2 Type: Tab 0 ratings
1 star 2 stars 3 stars 4 stars 5 stars
comments

Back Seat Confidential Tab

   
Back Seat Confidential
 Intro
 Tremolo Picking
 --/------------|
 --/------------|
 --/------------|
 --/------------|
 --2------------|
 --2------------|
 --0------------|

 Intro Solo
  U.B.......    U.B......................
 --12-10--9--------12-12-12-12-12-12~------------------------|
 --15-13-12--------15-15-15-15-15-15~---5-5-5-5--------------|
 -------------0-------------------------7-7-6-4-4------------|
 -------------0----------------------------------------------|
 -------------------------------------------------7----------|
 -------------------------------------------------0----------|
[ Tab from: http://www.guitartabs.cc/tabs/a/ac_dc/back_seat_confidential_tab_ver_2.html ]
 --/-----------|
 --/-----------|
 --/-----------|
 --2-------2~~-|
 --/-----------|
 --/-----------|

 ------------------------------------------------------------|
 ------------------------------------------------------------|
 ------------------------------------------------------------|
 ------------0-------------0-----------0-------------------2-| x2
 ------0h1h2---------0h1h2-------0h1h2---2p1p0---------------|
 --0-3-----------0-3---------0-3---------------3p0-0-3p0-0---|

 ---------------------------------------------------------|
 ---------------------------------------------------------|
 ---------------------------------------------------------|
 ------------0-------------------2-----------0---------2--|
 ------0h1h2---2p1p0-------------------0h1h2---2p1p0------|
 --0-3---------------3p0-0-3p0-0---0-3---------------3----|
Comments