Ac Dc - Back Seat Confidential Chords & Tabs

 

Back Seat Confidential Chords & Tabs

Ac Dc Chords & Tabs

Version: 1 Type: Bass Tab 0 ratings
1 star 2 stars 3 stars 4 stars 5 stars
comments

Back Seat Confidential Bass Tab

Back Seat Confidential Tab by Ac Dc, www.Ultimate-Guitar.Com

##NOTES##
This song is tuned in standard tuning, slightly flatted.

G||-----------------------||
D||----------------------o||
A||--5-------------------o||
E||----5-5--0h3p0p3-0--0--||

G||-----------|-----------|-----------|-----||
D||-----------|-----------|-----------|-----||
A||-----------|--5--5--5--|-----------|-----||
E||--0--0--0--|-----------|--5--5--5--|--0--||
[ Tab from: http://www.guitartabs.cc/tabs/a/ac_dc/back_seat_confidential_btab.html ]
Repeat everything then go to the solo

Solo
G||-------------------------------------------||
D||-------------------------------------------||
A||-------------------------------------------||
E||--5-5-5-5-5-5-5-5-5-5-5-5-keep repeating...||

G||-------------------------------------------||
D||-------------------------------------------||
A||--2-2-2-2-2-2-2-2-2-2-2-2-keep repeating...||
E||-------------------------------------------||

Then do everything as an outro.
Comments