Ac Dc - Back In Black Chords & Tabs

 

Back In Black Chords & Tabs

Ac Dc Chords & Tabs

Version: 3 Type: Tab 7 ratings
1 star 2 stars 3 stars 4 stars 5 stars
comments

Back In Black Tab

   
STANDARD TUNING


b=bend
/=slide



INTRO  play  3x
--------------------------------------------------|          
------------3-3-3---------------------------------|
------------2-2-2--------2-2-2--------------------|
--2---------0-0-0--------2-2-2--------------------|             
--2----------------------0-0-0--------------------|
--0-----------------------------------------------|



---3-0-------------------------------------------------|
-------3-0----------------3-3-3------------------------|
-----------2b4-0----------2-2-2------2-2-2-------------|
-------------------2------0-0-0------2-2-2-------------|
-------------------2-----------------0-0-0-------------|
-------------------0-----------------------------------|



------------------------------------------|
------------------------------------------|
------------------------------------------|
------------------------------------------|
------------------------------------------|
----7-4----7-5----7-6----7-7--------------|



        rythm figure  play 3x
--------------------------------------|
--------------------------------------|
----2-----4---2---4-------------------|
----2--2--4---2---4-------------------|
----0--2--2---0---2-------------------|
-------0------------------------------|

        chorus
--3-----3---3---3-3-3-3---3---2---2---2---2---2---2------------|
--3-----3---3---3-3-3-3---3---3---3---3---3---3---3------------|
--4-----4---4---4-4-4-4---4---2---2---2---2---2---2------------|
--5-----5---5---5-5-5-5---5---0---0---0---0---0---0------------|
--5-----5---5---5-5-5-5---5------------------------------------|
--3-----3---3---3-3-3-3---3------------------------------------|

Back in Black,___    Yes, I'm Back.__  Back in Black._


                  Solo
---------------------------------------------------------------|
---------------------------------------------------------------|
---------------------------------------------------------------|
-9-----7-7-7-----7-7-7-----------------9-9-9-----9-9-9---9-9-9-|
-7-----5-5-5-----4-4-4-----------------7-7-7-----7-7-7---7-7-7-|
-0-----0-0-0-----0-0-0-----------------0-0-0-----0-0-0---0-0-0-|


---------------------------------------------------------------|
------------------------------------2------0--------2----------|
------------------------------------2------1--------2----------|
-7-----7-7-7------7-7-7-------------2------2--------2----------|
-9-----5-5-5------4-4-4--------2----0------2--------0----------|
-0-----0-0-0------0-0-0--------0-------------------------------|




--------------------------|---------------------------------------|
--------------------------|---------------------------------------|
--------------------------|------------------0-2--3p2p0--2--------|
--------------------------|----------------------------------2----|
-------7vvvvv---5---5vvvv-|-4--4vvvvv-----2-----------------------|
--0-----------------------|---------------------------------------|


-----------------------------|------------------------------------|
-----------------------------|------------------------------------|
-----------------------------|-------------------7--7--7---x---7--|
-----------------------------|------------------------------------|
-------7vvvvvv----5---5vvvvv-|-4---4vvvvvvv-----------------------|
--0--------------------------|------------------------------------|


---------------------------|--------------------------------------|
------------5--8-----------|----8-10h11p10p8--10-8----------------|
----------------7b9-9vvv---|--9---------------------9-7-9--12--12-|
--7b9vvvvv-----------------|---------------------------------14---|
---------------------------|--------------------------------------|
---------------------------|--------------------------------------|


---------------------------------|--------------------------------|
-------15---15--15---------------|-------------------------15-----|
-14b16---14b16---14b16r14p12-14vv|12-------12---14-12-14b16--14b16|
---------------------------------|12h14-14---14-------------------|
---------------------------------|--------------------------------|
---------------------------------|--------------------------------|


-----12--12-------------------------12----------------------------|
--12--------15b17-15b17-15b17-15b17----15-12-----12---------------|
----------------------------------------------14-----1214b16------|
------------------------------------------------------------------|
------------------------------------------------------------------|
------------------------------------------------------------------|

[ Tab from: http://www.guitartabs.cc/tabs/a/ac_dc/back_in_black_tab_ver_3.html ]
------------15----------------------------------------------------|
--15--------------------------------------------------------------|
----14b16-------16p14---12--14-----12b14vvvvvvv-----12--13--14----|
--------------------------------14--------------------------------|
------------------------------------------------------------------|
------------------------------------------------------------------|


------------------------------------------------------------------|
--------14-----------------15-------------------------------------|
-12-----14-------12h14b16-------14b16r14-12-14--------------------|
----14--------14--------------------------------14vvvvv-----------|
------------------------------------------------------------------|
------------------------------------------------------------------|


----------------------------12------------------------------------|
--15b17vvvvvvvvvvvvvv-----------15--12-------12-------------------|
----------------------------------------14-------12---------------|
-----------------------------------------------------14x----------|
------------------------------------------------------------------|
------------------------------------------------------------------|

---0-----------0--0------|-0---0-0-----------------12-------------|
-0---3--5-----/5--3--3---|-2p0-2-2--------------12----15b17-------|
--------4----------------|---------------/14b16----------------0--|
-------------------------|----------------------------------------|
-------------------------|----------------------------------------|
-------------------------|----------------------------------------|
                                                      


--0--------------0------0vvvv-|-0-----0vvvv-----------------------|
--5--3--3-5vvv---5--0h2-3vvvv-|-2-0-0-2vvvv--14b15r14-12-14b15----|
------------------------------|--------------14b15r14-12-14b15----|
------------------------------|-----------------------------------|
------------------------------|-----------------------------------|
------------------------------|-----------------------------------|
  Well i'm back


 Back    in     Black
-2--------2-----2---------|  
-3--------3-----3---------|
-2--------2-----2---------|
-0--------0-----0---------|
--------------------------|
--------------------------|


   end part
--------------|-------------|------------------------------------|
--------13b15-|-12b13---r12-|-10---------------------------------|
--------------|-------------|------------------------------------|
--------------|-------------|------------------------------------|
--------------|-------------|------------------------------------|
--------------|-------------|---------------------(12)-----------|


------------------------|-0-----0vvvv----------------------------|
-5-3-3-5vv---3-2-2-3vvv-|-2-0-0-2--------12----------------------|
------------------------|----------------12----------------------|
------------------------|--------------------------14------------|
------------------------|----------------------------------------|
------------------------|----------------------------------------|


------------------------|--------------------------12------------|
-5-3-3-5vv---3-2-2-3vv--|-2-0-0-2vvvv-------15b17-----12--15b17--|
------------------------|----------------------------------------|
------------------------|----------------------------------------|
------------------------|----------------------------------------|
------------------------|----------------------------------------|


--------------------------------------------------------------------------|
--------------------------------------------------------------------------|
--------------------------------------------------------------------------|
--------------------------------------------------------------------------|
---5-4-2-4---------------------------5-4-2-4------------------------------|
-0---------3---7-5-7-6-7-7\\\\----0-----------3~--7-5-7-6-7-7\\\\---------|


--------------------------------------------------------------------------|
--------------------------------------------------------------------------|
--------------------------------------------------------------------------|
--------------------------------------------------------------------------|
---5-4-2-4---------------------------5-4-2-4------------------------------|
-0---------3---7-5-7-6-7-7\\\\----0----------3~--7-5-7-6-7-7\\\\----------|


--------------------------------------------------------------------------|
--------------------------------------------------------------------------|
---5-4-2-4---------------------------5-4-2-4------------------------------|
-0---------3~--7-5-7-6-7-7\\\\----0----------3~--7-5-7-6-7-7\\\\----------|
--------------------------------------------------------------------------|
Comments