Ac Dc - Back In Black Chords & Tabs

 

Back In Black Chords & Tabs

Ac Dc Chords & Tabs

Version: 17 Type: Tab 0 ratings
1 star 2 stars 3 stars 4 stars 5 stars
comments

Back In Black Tab

   
Song: Back In Black
Album: Back In Black
       
h - hammer on
p - pull off
b - bend string up
r - release bend
/ - slide up
\\ - slide down
v - vibrato
x - muted
()- ghost note

Note: Play these chords hard!

    E    D D D   A A A
e---0----2-2-2---0-0-0--|----3p0----------------------------------|
b---0----3-3-3---2-2-2--|--------3p0------------------------------|
g---1----2-2-2---2-2-2--|------------2-0--------------------------|
d---2----0-0-0---2-2-2--|-----------------------------------------|
a---2------------0-0-0--|-----------------------------------------|
e---0-------------------|-----------------------------------------|
                                     ^(full bend)
                                    
    E    D D D   A A A
e---0----2-2-2---0-0-0--|-----------------------------------------|
b---0----3-3-3---2-2-2--|-----------------------------------------|
g---1----2-2-2---2-2-2--|-----------------------------------------|
d---2----0-0-0---2-2-2--|-----------------------------------------|
a---2------------0-0-0--|-----------------------------------------|
e---0-------------------|-------7-3-7-4-7-5-7-6-------------------|

or if you insist on using power chords, of course you do this
(and the other ending, but I preferably like the first one)
    E    D D D   A A A
e-----------------------|----3p0----------|-----------------------|
b--------3-3-3----------|--------3p0------|-----------------------|
g--------2-2-2---2-2-2--|------------2-0--|-----------------------|
d---2----0-0-0---2-2-2--|-----------------|-----------------------|
a---2------------0-0-0--|-----------------|--2---2---2---2--------|
e---0-------------------|-----------------|----3---4---5---6------|
                                     ^(full bend)
                                       
Chorus
e-------------------------3-2--------3-2-----------------------------------|
b-------------------------3-3--------3-3-----------------------------------|
g-2---4-4-4--2---4-4-4----0-2-2---2--0-2-2---2----2---4-4-4--2---4-4-4-----|
d-2-2-4-4-4--2-2-4-4-4----0-0-2---2--0-0-2---2----2-2-4-4-4--2-2-4-4-4-----|
a-0-2-2-0-2--0-2-2-0-2----x---0---0--x---0---0----0-2-2-0-2--0-2-2-0-2-----|
e---0----------0----------3-----3^---3-----3^-------0----------0-----------|

e-------------------------3-----------------2-----2-----2------------------|
b-------------------------3-----------------3-----3-----3------------------|
g-2---4-4-4--2---4-4-4----0-----------------2-----2-----2------------------|
d-2-2-4-4-4--2-2-4-4-4----0-----------------0-----0-----0------------------|
a-0-2-2-0-2--0-2-2-0-2----x------------------------------------------------|
e---0----------0----------3------------------------------------------------|

The solo starts at 1 minute 50 seconds
This is the rythem plays under the solo.
This is played through out the solo.
e---------------------|-------------------------------------------|
b---------------------|-------------------------------------------|
g---------------------|-------------------------------------------|
d-9-----7-7-7-----7-7-|-7-----------------9-9-9-----9-9-9---9-9-9-|
a-7-----5-5-5-----4-4-|-4-----------------7-7-7-----7-7-7---7-7-7-|
e-0-----0-0-0-----0-0-|-0-----------------0-0-0-----0-0-0---0-0-0-|

e----------------------|------------------------------------------|
b----------------------|---------------2------0--------2----------|
g----------------------|---------------2------1--------2----------|
d-7-----7-7-7------7-7-|-7-------------2------2--------2----------|
a-9-----5-5-5------4-4-|-4--------2----0------2--------0----------|
e-0-----0-0-0------0-0-|-0--------0-------------------------------|

Now for the main solo:

e--------------------------|---------------------------------------|
b--------------------------|---------------------------------------|
g--------------------------|------------------0-2--3p2p0--2--------|
d--------------------------|----------------------------------2----|
a-------7vvvvv---5---5vvvv-|-4--4vvvvv-----2-----------------------|
e--0-----------------------|---------------------------------------|

e-----------------------------|------------------------------------|
b-----------------------------|------------------------------------|
g-----------------------------|-------------------7--7--7---x---7--|
d-----------------------------|------------------------------------|
a-------7vvvvvv----5---5vvvvv-|-4---4vvvvvvv-----------------------|
e--0--------------------------|------------------------------------|

e---------------------------|--------------------------------------|
b------------5--8-----------|----8-10h11p10p8--10-8----------------|
g----------------7b9-9vvv---|--9---------------------9-7-9--12--12-|
d--7b9vvvvv-----------------|---------------------------------14---|
a---------------------------|--------------------------------------|
e---------------------------|--------------------------------------|

e---------------------------------|--------------------------------|
b-------15---15--15---------------|-------------------------15-----|
g-14b16---14b16---14b16r14p12-14vv|12-------12---14-12-14b16--14b16|
d---------------------------------|12h14-14---14-------------------|
a---------------------------------|--------------------------------|
e---------------------------------|--------------------------------|
[ Tab from: http://www.guitartabs.cc/tabs/a/ac_dc/back_in_black_tab_ver_17.html ]
e-----12--12-------------------------12----------------------------|
b--12--------15b17-15b17-15b17-15b17----15-12-----12---------------|
g----------------------------------------------14-----1214b16------|
d------------------------------------------------------------------|
a------------------------------------------------------------------|
e------------------------------------------------------------------|

e------------15----------------------------------------------------|
b--15--------------------------------------------------------------|
g----14b16-------16p14---12--14-----12b14vvvvvvv-----12--13--14----|
d--------------------------------14--------------------------------|
a------------------------------------------------------------------|
e------------------------------------------------------------------|

e------------------------------------------------------------------|
b--------14-----------------15-------------------------------------|
g-12-----14-------12h14b16-------14b16r14-12-14--------------------|
d----14--------14--------------------------------14vvvvv-----------|
a------------------------------------------------------------------|
e------------------------------------------------------------------|

e----------------------------12------------------------------------|
b--15b17vvvvvvvvvvvvvv-----------15--12-------12-------------------|
g----------------------------------------14-------12---------------|
d-----------------------------------------------------14x----------|
a------------------------------------------------------------------|
e------------------------------------------------------------------|

e---0-----------0--0------|-0---0-0-----------------12-------------|
b-0---3--5-----/5--3--3---|-2p0-2-2--------------12----15b17-------|
g--------4----------------|---------------/14b16----------------0--|
d-------------------------|----------------------------------------|
a-------------------------|----------------------------------------|
e-------------------------|----------------------------------------|
                                                      
Well i\\\'m
e--0--------------0------0vvvv-|-0-----0vvvv-----------------------|
b--5--3--3-5vvv---5--0h2-3vvvv-|-2-0-0-2vvvv--14b15r14-12-14b15----|
g------------------------------|--------------14b15r14-12-14b15----|
d------------------------------|-----------------------------------|
a------------------------------|-----------------------------------|
e------------------------------|-----------------------------------|
  Back    in     Black
e-2--------2-----2---------|
b-3--------3-----3---------|
g-2--------2-----2---------|
d-0--------0-----0---------|
a--------------------------|
e--------------------------|

At the end of the song at 3 minutes 31 seconds there
is a small
solo :

Back in Black                        I wanna sat it
e--------------|-------------|------------------------------------|
b--------13b15-|-12b13---r12-|-10---------------------------------|
g--------------|-------------|------------------------------------|
d--------------|-------------|------------------------------------|
a--------------|-------------|------------------------------------|
e--------------|-------------|---------------------(12)-----------|

Then using the same rythem as the main solo:
e------------------------|-0-----0vvvv----------------------------|
b-5-3-3-5vv---3-2-2-3vvv-|-2-0-0-2--------12----------------------|
g------------------------|----------------12----------------------|
d------------------------|--------------------------14------------|
a------------------------|----------------------------------------|
e------------------------|----------------------------------------|

e------------------------|--------------------------12------------|
b-5-3-3-5vv---3-2-2-3vv--|-2-0-0-2vvvv-------15b17-----12--15b17--|
g------------------------|----------------------------------------|
d------------------------|----------------------------------------|
a------------------------|----------------------------------------|
e------------------------|----------------------------------------|

outro (bridge)
e--------------------------------------------------------------------------|
b--------------------------------------------------------------------------|
g--------------------------------------------------------------------------|
d--------------------------------------------------------------------------|
a---5-4-2-4---------------------------5-4-2-4------------------------------|
e-0---------3---7-5-7-6-7-7\\\\----0-----------3~--7-5-7-6-7-7\\\\---------|

e--------------------------------------------------------------------------|
b--------------------------------------------------------------------------|
g--------------------------------------------------------------------------|
d--------------------------------------------------------------------------|
a---5-4-2-4---------------------------5-4-2-4------------------------------|
e-0---------3---7-5-7-6-7-7\\\\----0----------3~--7-5-7-6-7-7\\\\----------|

e--------------------------------------------------------------------------|
b--------------------------------------------------------------------------|
g--------------------------------------------------------------------------|
d---5-4-2-4---------------------------5-4-2-4------------------------------|
a-0---------3~--7-5-7-6-7-7\\\\----0----------3~--7-5-7-6-7-7\\\\----------|
e--------------------------------------------------------------------------|

 
 
 
Copyright 1999-2005 Mxtabs | Contact | Advertise | FAQ
Comments