Ac Dc - Back In Black Chords & Tabs

 

Back In Black Chords & Tabs

Ac Dc Chords & Tabs

Version: 12 Type: Tab 0 ratings
1 star 2 stars 3 stars 4 stars 5 stars
comments

Back In Black Tab

INTRO:
e-----------------------3--0----------------
B----3--3--3---2--2--2--------3--0----------
G-1--2--2--2---2--2--2--------------2bp0----
D-2--0--0--0---2--2--2----------------------
A-2--0--0--0---0--0--0----------------------
E-0-----------------------------------------

e-------------------------------------------
B----3--3--3---2--2--2----------------------
G-1--2--2--2---2--2--2----------------------
D-2--0--0--0---2--2--2----------------------
A-2--0--0--0---0--0--0--2---2--0--2--1--2--2
E-0-----------------------4-----------------

VERSE part1:
e---------------------------------
B-2------------------2------------
G-2--2--4--2--4---2--2--4--2--4---
D-2--2--4--2--4---2--2--4--2--4---
A-0--2--2--2--2---0--2--2--2--2---
E---------------------------------

Part2:
e-3-------------3----------------
B-3--3--2----2---3--3--2----2----
G-0--2--2----2---0--2--2----2----
D-0--0--2----2---0--0--2----2----
A--------------------------------
E---------3b------------3b-------
[ Tab from: http://www.guitartabs.cc/tabs/a/ac_dc/back_in_black_tab_ver_12.html ]
Part3:
e-3--3--3--3--3------------------
B-3--3--3--3--3---x-x---3---3---3
G-0--0--0--0--0---x-x---2---2---2
D-----------------x-x---0---0---0
A-----------------x-x------------
E--------------------------------

INTERLUDE part1:
e----------------------------------
B----------------------------------
G----------------------------------
D----------------------------------
A----5/4p2---2----2--0--2--1--22--
E-0-------------3b-----------------

Part2:
e----------------------------------
B----------------------------------
G----------------------------------
D----5/4p2---2----2--0--2--1--22--
A-0-------------3b-----------------
E----------------------------------

ORDER:	
INTRO 4x
VERSE part1 2x
VERSE part2 2x
VERSE part1 2x
VERSE part3 2x
INTRO 2x
VERSE part1 2x
VERSE part2 2x
VERSE part1 2x
VERSE part3 2x
SOLO
VERSE part1 2x
VERSE part2 2x
VERSE part1 2x
VERSE part3 2x
INTERLUDE part1 4x
INTERLUDE part2 2x
INTERLUDE part1 2x
VERSE part1 2x
VERSE part2 2x
VERSE part1 2x
VERSE part3 2x
OUTRO
Comments