Ac Dc - Back In Black Chords & Tabs

 

Back In Black Chords & Tabs

Ac Dc Chords & Tabs

Version: 1 Type: Tab 2 ratings
1 star 2 stars 3 stars 4 stars 5 stars
comments

Back In Black Tab

   
#----------------------------------PLEASE NOTE--------------------------------#
#This file is the author's own work and represents their interpretation of the#
#song. You may only use this file for private study, scholarship, or research.#
#-----------------------------------------------------------------------------#


Ac/\Dc

Back in Black 

By Brian S.


Intro / Verses :
   E    D      A          G
e-------0-0-0----------|--3-0----------------|
b-------2-2-2--0-0-0---|------3-0------------|
g--1----3-3-3--2-2-2---|----------2b4p0------|
d--2----2-2-2--2-2-2---|----------------(4\)-|
a--2-----------2-2-2---|---------------------|
e--0-------------------|---------------------|
   E   D      A          G
e---------------------|--------------------|
b------7-7-7----------|--------------------|
g--1---7-7-7--7-7-7---|------staccato------|
d--2---7-7-7--7-7-7---|--.---.-.-.-.-.-.---|
a--2---5-5-5--7-7-7---|--2-.-2-0-2-1-2-2\--|
e--0----------5-5-5---|----4---------------|


The Chorus:
   A  E  B  A  B          G  D  A   E           G    D 
e----------------|-----|--3-----------|------|--3--|-------|
b----------------|-----|--3--3--------|------|--3--|-3-3-3-|
g--2--1--4--2--4-|--%--|--0--2--2---2-|--%---|--0--|-2-2-2-|
d--2--2--4--2--4-|--%--|-----0--2---2-|--%---|--0--|-0-0-0-|
a--0--2--2--0--2-|-----|--------0---0-|------|-----|-------|
e-----0----------|-----|----------3---|------|--3--|-------|

Solo : (1:49) gtr 1 - chords (played more times than written)
	      gtr 2 - notes
e--------------------------------------------------------------|
b-------------3-----------1-----------4------------------------|
g--2----------2-----------x-----------4------------------------| 2x
d--2----------0-----------2-----------4-----0--2b(4)-r2-0---0--|
a--1---7v~~---0----5v~~---3----4v~~---2---2---------------2----|
e--0-----------------------------------------------------------|

e------------------------------------5----------------------------|
b---------------------8--5--------------8-------------------------|
g--7-7~--7-7---7b~~~---------7--7b----------7b~~--7b--5~~---------|
d--7-7~--7-7------------------------------------------------------|
a--5-5~--5-5------------------------------------------------------|
e-----------------------------------------------------------------|
[ Tab from: http://www.guitartabs.cc/tabs/a/ac_dc/back_in_black_tab.html ]
e------------10--------10-----------------------------------------|
b--------10b~~~--10br~~~~-10-8--10b-r10p8-------------------15----|
g--5--7-----------------------------------9----12-----12-14b~~-14-|
d----------------------------------------------12--14-------------|
a-----------------------------------------------------------------|
e-----------------------------------------------------------------|

e------12~-12-12-12-12~~------------------------------------------|
b--15--------------------15b-r15p12----12-------------------------|
g-----------------------------------14----14p12----12-------------|
d-----------------------------------------------14----14p12-------|
a-----------------------------------------------------------------|
e-----------------------------------------------------------------|

e-------------------------------------------------12--------------|
b----------------------15p12-----------15b~~~~~~------15p12h15p12-|
g--12-----12-14b-14-12-------14p12--------------------------------|
d--12--14---------------------------------------------------------|
a-----------------------------------------------------------------|
e-----------------------------------------------------------------|

e-----------------------------------------------------------------|
b------------------------------------------------14-15--15b~~~~~--|
g--14p12h14----14-------------12--14-14b--r14-12------------------|
d-----------12----12h14-------12----------------------------------|
a-----------------------12/---------------------------------------|
e-----------------------------------------------------------------|

e-------------12--------------------------------------------------|
b----------------15-12--------------------------------------------|
g--14--12--14----------14-12---12---------------------------------|
d--14--12--14----------------14---14~~----------------------------|
a-----------------------------------------------------------------|
e-----------------------------------------------------------------|

e--------------------------------------------------------------|
b-------------3-----------1-----------4----12-15b-15-12--------|
g--2----------2-----------x-----------4-----------------14-12--| 
d--2----------0-----------2-----------4------------------------|
a--1---7v~~---0----5v~~---3----4v~~---2------------------------|
e--0-----------------------------------------------------------|

e---12b----------------------------------------------------15/--|
b-------14-15-12------------------------------------15----------|
g----------------14-12--------------------12----12-----12-------|
d----------------------14-12--------12h14----14-----------------|
a----------------------------12---------------------------------|
e-------------------------------15------------------------------|







Comments