Ac Dc - Back In Black Chords & Tabs

 

Back In Black Chords & Tabs

Ac Dc Chords & Tabs

Version: 1 Type: Chords 1 rating
1 star 2 stars 3 stars 4 stars 5 stars
comments

Back In Black Chords

   
Song: Back in Black
Artist: AC/DC
Tabbed by: Cheese_monkey391

this is a great song and really simple!

intro/verses:
E DDD AAA 

then this little lick 
e|-3r--------------------------|
B|---3r------------------------|
G|------2b---------------------|
D|-----------------------------|
A|-----------------------------|
E|-----------------------------|
[ Tab from: http://www.guitartabs.cc/tabs/a/ac_dc/back_in_black_crd.html ]
and every second one, do this
e|-----------------------------|
B|-----------------------------|
G|-----------------------------|
D|-----------------------------|
A|-----------------------------|
E|-7-4-7-5-7-6-7-0-------------|

chorus:
A E B A B x2
G D A E A x2

another song from the masters of rock 'n' roll, AC/DC!

questions? email me at mad.as.a.spoon.391@hotmail.com
Comments