Ac Dc - Back In Black Chorus And Verse Chords & Tabs

 

Back In Black Chorus And Verse Chords & Tabs

Ac Dc Chords & Tabs

Version: 1 Type: Tab 2 ratings
1 star 2 stars 3 stars 4 stars 5 stars
comments

Back In Black Chorus And Verse Tab

-0--2-2-2--0-0-0
-0--3-3-3--3-3-3
-1--2-2-2--3-3-3
-2--0-0-0--3-3-3    x4 (Intro/Verse)
-2--0-0-0--0-0-0
-0--0-0-0--0-0-0




-------------
-------------
-------------
-7-----9-7-9-     x2 (1/2 of chorus)
-7-----9-7-9-
-5--0--7-5-7- 
[ Tab from: http://www.guitartabs.cc/tabs/a/ac_dc/back_in_black_chorus_and_verse_tab.html ]
-------------
-------------
-7-----9-7-9-
-7-----9-7-9-     x2 (go back to first part of chorus x2)
-5--0--7-5-7-
-------------

---------------------
---------------------
---------------------
-5--5--5--5--7-7-7-7-    Go back to verse except play it x2 
-5--5--5--5--7-7-7-7-
-3--3--3--3--5-5-5-5-
Comments