Ac Dc - Back In Black Chords & Tabs

 

Back In Black Chords & Tabs

Ac Dc Chords & Tabs

Version: 8 Type: Bass Tab 0 ratings
1 star 2 stars 3 stars 4 stars 5 stars
comments

Back In Black Bass Tab

submitted by taylor lorance

Artist: AC/DC
Song:Back in Black
Album:Back in Black
Tuning:standard (GDAE)

there's lots of ways to play this tab. this is the way that i play it and it sounds pretty good.
/=slide
^=bend
(#)=this is optional to play
p=pull off
~=hold note

intro/verse1:
G/------------------------------(^)--------------------------------------/
D/------------------------------(2)--------------5-5-5-------------------/
A/----5-5-5---------------(3p0)-----------5-5-5------------3---4---5---4-/x4
E/-7---------5-5-5--(3p0)---------------7----------------2---2---2---2---/

chorus1:
G/-------------------------------------------------------------------------/
D/-------------------------------------------------------------------------/
A/-------^-----------^-----10-5---^-----10-5---^-----------^-----------^---/
E/-5-0-7-5-7---5-0-7-5-7--------5-3-5--------5-3-5---5-0-7-5-7---5-0-7-5-7-/

G/-------------------------------------------------------------/
D/-------------------------------------------------------------/
A/-10--10--10-10-10--5/12-5/12-5/15----------------------------/
E/-------------------------------------------------------------/
you can either play the A/-10 on G/-5, but i play it on A/-10--/ 
cause i can get more tone out of it like that.

verse2:
G/------------------------------(^)--------------------------------------/
D/------------------------------(2)--------------5-5-5-------------------/
A/----5-5-5---------------(3p0)-----------5-5-5------------3---4---5---4-/x2
E/-7---------5-5-5--(3p0)---------------7----------------2---2---2---2---/

chorus2:
G/-------------------------------------------------------------------------/
D/-------------------------------------------------------------------------/
A/-------^-----------^-----10-5---^-----10-5---^-----------^-----------^---/
E/-5-0-7-5-7---5-0-7-5-7--------5-3-5--------5-3-5---5-0-7-5-7---5-0-7-5-7-/

G/----------------------------------/
D/----------------------------------/
A/-10--10--10-10-10--5/12-5/12-5/15-/
E/----------------------------------/
[ Tab from: http://www.guitartabs.cc/tabs/a/ac_dc/back_in_black_btab_ver_8.html ]
solo:
G/----------------------------------------------------------/
D/----------------------------------------------------------/
A/----5-5-5--4-4-4--------------------5-5-5--4-4-4----------/x5
E/-0---------------0-0-0--0-0-0--0-0----------------0-5--0-5/

chorus3:
G/-------------------------------------------------------------------------/
D/-------------------------------------------------------------------------/
A/-------^-----------^-----10-5---^-----10-5---^-----------^-----------^---/
E/-5-0-7-5-7---5-0-7-5-7--------5-3-5--------5-3-5---5-0-7-5-7---5-0-7-5-7-/

G/----------------------------------/
D/----------------------------------/
A/-10--10--10-10-10--5/12-5/12-5/15-/
E/----------------------------------/

bridge/interlude thingy:
G/--------------------------------------------------/
D/--------------------------------------------------/
A/-0-0-2---2---2---2---2----0-0-2---2---2---2---2---/x2
E/-------3---4---5---4---3--------3---4---5---4---3-/

G/--------------------------------------------------/
D/-0-0-2---3---2---2---2----0-0-2---3---2---2---2---/
A/-------3---4---5---4---3--------3---4---5---4---3-/
E/--------------------------------------------------/

G/--------------------------------------------------/
D/--------------------------------------------------/
A/-0-0-2---2---2---2---2----0-0-2---2---2---2---2---/
E/-------3---4---5---4---3--------3---4---5---4---3-/

chorus4:
G/-------------------------------------------------------------------------/
D/-------------------------------------------------------------------------/
A/-------^-----------^-----10-5---^-----10-5---^-----------^-----------^---/
E/-5-0-7-5-7---5-0-7-5-7--------5-3-5--------5-3-5---5-0-7-5-7---5-0-7-5-7-/

G/----------------------------------/
D/----------------------------------/
A/-10--10--10-10-10--5/12-5/12-5/15-/
E/----------------------------------/

right before the outro- play this
G/------------------------/
D/------------------------/
A/------------------------/
E/-0----------------------/
   1  2  3  4  5  6  7  8

outro
G/----------------------------------------------------------/
D/----------------------------------------------------------/
A/----5-5-5--4-4-4--------------------5-5-5--4-4-4----------/
E/-0---------------0-0-0--0-0-0--0-0----------------0-5--0-5/
play this until it fades (aproximitly 4 times)

i hope this tab was helpful to u. it it was email me @ bassplayer07@sbcglobal.net. or it 
thought that it was a piece of junk, let me know anyway.
Comments