Ac Dc - Back In Black Chords & Tabs

 

Back In Black Chords & Tabs

Ac Dc Chords & Tabs

Version: 7 Type: Bass Tab 0 ratings
1 star 2 stars 3 stars 4 stars 5 stars
comments

Back In Black Bass Tab

ACD/DC
BACK IN BLACK- FROM BACK IN BLACK (1980)
STANDARD TUNING

VERSE (PLAY TILL CHORUS)
G----------------------------------------|
D----------------------------------------|
A---555-------------555------------------|
E-0-----555------0------555-85-86-87-87--|
CHORUS
G------------------------------------------------------------|
D------------------------------------------------------------|
A------------------------------------------------------------|
E-\77750757-77750757-33350535-33350535--77750757-77750757----|
END OF CHORUS                                       '...I'M BAACK...'
G-------------------------------|
D-------------------------------|
A---------------------5--7/-10--|
E-9-8-10-9-11-10-12-12----------|
'YES I'M BACK, YES I'M BACK IN BLACK

PLAY VERSE
PLAY CHORUS
PLAY END OF CHORUS....THEN......
[ Tab from: http://www.guitartabs.cc/tabs/a/ac_dc/back_in_black_btab_ver_7.html ]
SOLO                                           END OF SOLO
G--------------------|------------------| |----------------------|
D--------------------|------------------| |----------------------|
A---555--------------|-555--------------| |---555----------------|
E-0-----555-00-00-00-|-0----555-5-0-5-0-| |-----555-000--0-5-0-5-|

CHORUS
G-----------------------------------------------------------|
D-----------------------------------------------------------|
A-----------------------------------------------------------|
E-\77750757-77750757-33350535-33350535-77750757-77750757----|
INTERLUDE
G-----|------------------------------------------------------------------|
D-----|------------------------------------------------------------------|
A-----|----------------------------0-0-35479-0-0-35479-------------------|
E-0---|0-3-5-7--0-0-35479-0-0-35479-------------------0-0-35479-0-035479-|
OUTRO
G--------------------|-------------------||REPEAT TILL SONG FADES
D--------------------|-------------------||
A---555--------------|---555-------------||
E-0-----555-00-00-00-|-0-----555-5-0-5-0-||

YOURE GONNA HAVE TO FIGURE THE AMOUNT OF TIMES THE RIFFS ARE PLAYED.
IM PRETTY SURE THIS IS RIGHT, IF YOU LISTEN CAREFULLY TO THE STUDIO VERSION IT SHOULD BE 
PLEASE RATE THIS
Comments