Ac Dc - Back In Black Chords & Tabs

 

Back In Black Chords & Tabs

Ac Dc Chords & Tabs

Version: 5 Type: Bass Tab 0 ratings
1 star 2 stars 3 stars 4 stars 5 stars
comments

Back In Black Bass Tab

This is a tab my friend's brother wrote up for me. I just decided to type it up
and stick it on the internet for other people's use. First tab blah blah blah...
Might be a couple mistakes. It can be updated so thats not a problem, well I think so anyway...

Verse

G--------------------------------------------------
D--------------------------------------------------
A-----555-444--------555-444-----------------------
E--0--------------0--------------74757677----------


Chorus

G--------------------------------------------------
D--------------------------------------------------
A--22222202-------22222202-------------------------
E--------------------------------------------------

G--------------------------------------------------
D--------------------------------------------------
A------------------------------------2--0--2-------
E--55555535-------55555535-----5--0----------------
[ Tab from: http://www.guitartabs.cc/tabs/a/ac_dc/back_in_black_btab_ver_5.html ]
G--------------------------------------------------
D--------------------------------------------------
A--------------555---------------------------------
E--33333333----------------------------------------


Solo


G--------------------------------------------------
D--------------------------------------------------
A-----555-444--------------------------------------
E--0----------000-000-000--------------------------

G--------------------------------------------------
D--------------------------------------------------
A-----555-444--------------------------------------
E--0----------000-000-000--0--5--3--5--------------


Bridge

G--------------------------------------------------
D--------------------------------------------------
A----------------03456--03456----------------------
E--03456--03456----------------03456---------------
  /           /<---play 2x

You can listen to get the right path, but it isnt too hard.
Comments