Ac Dc - Back In Black Chords & Tabs

 

Back In Black Chords & Tabs

Ac Dc Chords & Tabs

Version: 3 Type: Bass Tab 0 ratings
1 star 2 stars 3 stars 4 stars 5 stars
comments

Back In Black Bass Tab

   
-------------------------------------------------------------------------------
     Back in Black - AC/DC
-------------------------------------------------------------------------------

Tabbed By :Zeppelin69
e-mail:

Tuning:Normal

Intro/Verse
G|--------------------r------------------------------------------------------|
D|--------------------e------------------------------------------------------|
A|-----5-5-5----------s--------5-5-5-----------------------------------------|
E|-0-----------5-5-5--t----0-----------5-5-5----7-4-7-5-7-6-7-6\-------------|
Chorus
G|---------------------------------------------------------------------------|
D|--------------------------0------------0-----------------------------------|
A|-0---2-0-2----0---2-0-2-----0-0----0-----0-0---0---0---2-0-2--0---2-0-2----|
E|---0------------0----------------3-----------3-------0----------0----------|
[ Tab from: http://www.guitartabs.cc/tabs/a/ac_dc/back_in_black_btab_ver_3.html ]
G|---------------------------------------------------------------------------|
D|---------------------------------------------------------------------------|
A|------------------5-5-5----------------------------------------------------|
E|-333333333333333-----------------------------------------------------------|
During Solo
G|---------------------------------------------------------------------------|
D|---------------------------------------------------------------------------|
A|----5-5-5--4-4-4---------------5-5-5--4-4-4--------------------------------|
E|-0----------------000-000-000----------------0-5-0-5-----------------------|
Bridge
G|-----------------------------------------------------2-0---0---------------|
D|---2-0---0------------------2-0---0----------------------2-----2-0-2-1-2-1-|
A|-------2-----2-0-2-1-2-1--------2-----2-0-2-1-2-1--0---------3-------------|
E|-0---------3--------------0---------3--------------------------------------|

G|---2-0---0-----------------------------------------------------------------|
D|-------2-----2-0-2-1-2-1----2-0---0------------------2-0---0---------------|
A|-0---------3--------------------2-----2-0-2-1-2-1--------2-----2-0-2-1-2-1-|
E|--------------------------0---------3--------------0---------3-------------|
Put all of the parts together and you've got it!

| /  slide up
| \  slide down
| h  hammer-on
| p  pull-off
| ~  vibrato
| +  harmonic
| x  Mute note

===============================================================================
Comments