Ac Dc - Back In Black Chords & Tabs

 

Back In Black Chords & Tabs

Ac Dc Chords & Tabs

Version: 1 Type: Bass Tab 5 ratings
1 star 2 stars 3 stars 4 stars 5 stars
comments

Back In Black Bass Tab

Artist - AC/DC
Song - Back In Black


Tuning - Standard

Intro:

G -----|-----|
D -----|-----|
A --R--|--R--|
E -----|-----|

Verse:

G --------------------------|---------------------------------|
D --------------------------|---------------------------------|
A -7--5-5-5--0-0-0----12/X--|-7--5-5-5--0-0-0-----------------|  x4
E --------------------------|-----------------0-5-0-6-0-7-0-8-|

Chorus:

G --------------------------------------------------------------------------------------------------|
D --------------------------------------------------------------------------------------------------|
A --------------------------------------------------------------------------------------------------|
E -7-5-0-5-7----7-5-0-5-7----5-3-0-3-5----5-3-0-3-5----7-5-0-5-7----7-5-0-5-7----3-3-3-3-3-3--5-5-5-|

Verse:
[ Tab from: http://www.guitartabs.cc/tabs/a/ac_dc/back_in_black_btab.html ]
G --------------------------|---------------------------------|
D --------------------------|---------------------------------|
A -7--5-5-5--0-0-0----12/X--|-7--5-5-5--0-0-0-----------------|  x2
E --------------------------|-----------------0-5-0-6-0-7-0-8-|

Bridge:

G -----------------------------------------------------------------------------------------|
D -----------------------------------------------------------------------------------------|
A -----------------------------------------------------------------------------------------|
E -----------0-6-0-7-0-8-----------0-6-0-7-0-8-----------0-6-0-7-0-8-----------0-6-0-7-0-8-|

Chorus:

G --------------------------------------------------------------------------------------------------|
D --------------------------------------------------------------------------------------------------|
A --------------------------------------------------------------------------------------------------|
E -7-5-0-5-7----7-5-0-5-7----5-3-0-3-5----5-3-0-3-5----7-5-0-5-7----7-5-0-5-7----3-3-3-3-3-3--5-5-5-|

Verse:

G --------------------------|---------------------------------|
D --------------------------|---------------------------------|
A -7--5-5-5--0-0-0----12/X--|-7--5-5-5--0-0-0-----------------|  x2 and slow on the last time.
E --------------------------|-----------------0-5-0-6-0-7-0-8-|
Comments