Ac Dc - Are You Ready Chords & Tabs

 

Are You Ready Chords & Tabs

Ac Dc Chords & Tabs

Version: 2 Type: Tab 0 ratings
1 star 2 stars 3 stars 4 stars 5 stars
comments

Are You Ready Tab

Are You Ready Tab by Ac Dc, www.Ultimate-Guitar.Com

Tuning: Standard

--------0---------0----------0--------0------0-------0----|
----------3---------3------3---3---3---3---3---3---3---3--|
-----2----------2-----------------------------------------|
---0----------0-------------------------------------------|
------------------------3--------3--------2------2--------|
----------------------------------------------------------|

--------0---------0----|
------3---3-----3---3--|
----------------------.|
----------------------.|
----3--------3---------|
-----------------------|
[ Tab from: http://www.guitartabs.cc/tabs/a/ac_dc/are_you_ready_tab_ver_2.html ]
--------0---------0---------0-------0-------0-------0-------0-------0-------0-----|
----------3---------3-----3---3---3---3---3---3---3---3---3---3---3---3---3---3---|
-----2---------2------------------------------------------------------------------|
---0---------0--------------------------------------------------------------------|
----------------------------------------------------------------------------------|
-----------------------2--------2-------3-------3-------1-------1-------1---------|
guitars one and two
----------------------------------------------------------------------------------|
----------------------------------------------------------------------------------|
----------------------------------------------------------------------------------|
---7------------------------------------------------------------------------------|
---5-------------------5----------------5---------------3----------------3--------|
-----------------------2----------------3---------------1----------------1--------|

-------------------------------3--|
-------------------------------3--|
---7--7--7--5--7--7--------5---0-.|
---7--7--7--5--7--7----3---5---0-.|
---5--5--5--3--5--5----3---3---x--|
-----------------------1-------3--|

repeat the guitars one and two part

-------------------------------------------------------------|
-------------------------------------------------------------|
------------------------------------------------------------.|
---7-7-7-5-5-7-7-5-5-5-5-5-5-5-5-5-5-5-5-5-5-5-5-5-5-5-5-5--.|
---5-5-5-3-3-5-5-3-3-3-2-2-3-3-2-2-2-0-0-2-2-3-3-3-2-2-3-3---|
-------------------------------------------------------------|

That's it.
Comments