Ac Dc - Aint No Fun Chords & Tabs

 

Aint No Fun Chords & Tabs

Ac Dc Chords & Tabs

Version: 1 Type: Tab

Aint No Fun Tab

-------------------------------------------------------------------------------
          AC/DC - Aint No Fun Wating Round To Be A Millionare.
-------------------------------------------------------------------------------
Tabbed by:Mike Pemberton (Cosmicbluibanez) 5.11.05
Email:Mkpod7@aol.com

Tuning:Standard

Ive seen a few versions of this on the net and in various books but they dont sound
right to me and ive been listening
to AC/DC since i was 12.

Ive arranged it like i often do as if you were in a one guitar situation,I think it
sounds quite accurate,Although you need
to know the song for the timing.

The arppegio's are simple but be carfull not to mute the strings as you fret above
them.
Thanks for looking and Enjoy!

e|----------------------------------------------|
B|--3--------3----------------------------------|
G|--2--------2--------0-----0---------0-----0---|
D|--0---3/4--0------0-----0-----0---0-----0-----|
A|----------------------0-----2---3-----2-------|
E|----------------3---------------------------3-|

e|----------------------------------------------|
B|--3--------3----------------------------------|
G|--2---3/4--2--------0---------------0-----0---|
D|--0--------0------0-------0---0---0-----0-----|
A|------------------------0---2---3-----2-------|
E|----------------3-----0---------------------3-|
[ Tab from: http://www.guitartabs.cc/tabs/a/ac_dc/aint_no_fun_tab.html ]
e|---------------------------------------------------------------------------|
B|--3-3--3-3-3---------------------------------------------------------------|
G|--2-2--4-2-4-----REPEAT THROUGH VERSES-------------------------------------|
D|--0-0--0-0-0---------------------------------------------------------------|
A|---------------------------------------------------------------------------|
E|---------------------------------------------------------------------------|

CHORUS

e|-------------------------------------------------------|
B|--3---------3------------------------------------------|
G|--0---------0----------------0-----0---------0-----0---|
D|--0---------0--------------0-----0-----0---0-----0-----|
A|-------------------------------0-----2---3-----2-------|
E|--3---------3------------3---------------------------3-|

e|--------------------------|
B|--3-3--3-3-3---3-3--3-3-3-|
G|--2-2--4-2-4---2-2--4-2-4-|
D|--0-0--0-0-0---0-0--0-0-0-|
A|--------------------------|
E|--------------------------|

e|-------------------------------------------------------|
B|--3---------3------------------------------------------|
G|--0---------0----------------0-----0---------0-----0---|
D|--0---------0--------------0-----0-----0---0-----0-----|
A|-------------------------------0-----2---3-----2-------|
E|--3---------3------------3---------------------------3-|

BACK TO VERSE