Ac Acoustics - Stunt Girl Chords & Tabs

 

Stunt Girl Chords & Tabs

Ac Acoustics Chords & Tabs

Version: 1 Type: Tab 0 ratings
1 star 2 stars 3 stars 4 stars 5 stars
comments

Stunt Girl Tab

   
#------------------------------PLEASE NOTE-------------------------------------#
#This file is the author's own work and represents their interpretation of the #
#song. You may only use this file for private study, scholarship, or research. #
#------------------------------------------------------------------------------#

Artis:A.C.Acoustics
Song:Stunt Girl


Intro

|----------------------------------------|
|----------------------------------------|
|---8b--------8b-------8------11-11-11-9-|
|-------7-6--------6-----7-6---9--9--9-7-|--Repeat as needed
|----------------------------------------|
|-0---------0--------0-------------------|


|------------------------------------------|
|------------------------------------------|
|---------------14-14-14-14-14-14-14-14-14-|
|-6-6-6-4--2-2--14-14-14-14-14-14-14-14-14-|--(00:11)
|-6-6-6-4--2-2--12-12-12-12-12-12-12-12-12-|
|-4-4-4-2--0-0-----------------------------|


|-------------------------|-----------|
|-10-10-12-12-12-14-14-12-|-----------|
|-------------------------|-----------|
|-------------------------|--(01:16)--|
|-------------------------|-----------|
|-------------------------|-----------|


|----------------------------|
|-12-12-12-12-12-14-14-14-12-|
|----------------------------|
|----------------------------|--(This bit isn't played, but it follows the voice)
|----------------------------|
|----------------------------|


|--------------------------|-----------|
|--------------------------|-----------|
|-13b------14-13-----11----|-----------|
|-------14--------14----14-|--(01:27)--|
|--------------------------|-----------|
|--------------------------|-----------|


|----------|----------|
|--------9-|----------|
|-11-9-----|----------|
|------9---|--(01:30)-|
|----------|----------|
|----------|----------|

[ Tab from: http://www.guitartabs.cc/tabs/a/ac_acoustics/stunt_girl_tab.html ]
|--------------------|----|
|---------7s=9s7-----|----|
|-9s11s9--9S11S9--11-|----|
|--------------------|----|
|--------------------|----|
|--------------------|----|


|-------------------------|----------|
|-------------------------|----------|
|-13b------14-13----11----|----------|
|-------14-------14----14-|--(1:44)--|
|-------------------------|----------|
|-------------------------|----------|


|---------------------------------|-----------|
|-7S=8s7--------------------------|-----------|
|-9-10-9--------16-16-16-16s18s16-|-----------|
|--------9-6-7--14-14-14-14-16-14-|--(1:046)--|
|---------------------------------|-----------|
|---------------------------------|-----------|


|---------------------------|----------|
|-7S=8s7--------------------|----------|
|-9-10-9------6-6-6-6-6-6-6-|----------|
|--------9-6--6-6-6-6-6-6-6-|--(2:24)--|
|-------------4-4-4-4-4-4-4-|----------|
|---------------------------|----------|


            >
|---------|------|
|---------|------|
|---13b15-|------|
|---------|-2----|
|---------|-2----|
|-0-------|-0----|

Tabbed by RoB


Tablature Legend
----------------
 h   - hammer-on
 p   - pull-off
 b   - bend
 pb  - pre-bend
 r   - bend release (if no number after the r, then release immediately)
 /\  - slide into or out of (from/to "nowhere")
 s   - legato slide
 S   - shift slide
  - natural harmonic
[n]  - artificial harmonic
n(n) - tapped harmonic
 ~   - vibrato
 tr  - trill
 T   - tap
 TP  - trem. picking
 PM  - palm muting
\n/  - tremolo bar dip; n = amount to dip
 \n  - tremolo bar down
 n/  - tremolo bar up
/n\  - tremolo bar inverted dip
 =   - hold bend; also acts as connecting device for hammers/pulls
 <>  - volume swell (louder/softer)
 x   - on rhythm slash represents muted slash
 o   - on rhythm slash represents single note slash


***************************************************************************************
* Generated using Power Tab Editor by Brad Larsen - http://powertab.guitarnetwork.org *
***************************************************************************************
Comments