Abyssinians - Satta Massagana Chords & Tabs

 

Satta Massagana Chords & Tabs

Abyssinians Chords & Tabs

Version: 1 Type: Bass Tab 0 ratings
1 star 2 stars 3 stars 4 stars 5 stars
comments

Satta Massagana Bass Tab

Artist: The Abyssinians
Album: Satta Massagana
Song: Satta Massagana
Tab: thegonz1@hotmail.com

Riff 1:
-------------------------
-------------------------
-------------------------
-5-5-5-5-----5-5-5-5-----

Riff 2:
-------------------------
-------------------------
---5-5-5-------5-5-5-----
-5-----------5-----------
[ Tab from: http://www.guitartabs.cc/tabs/a/abyssinians/satta_massagana_btab.html ]
Riff 3:
-------------------------
-------------------------
-7-----------------------
---5-5-5-----5-5-5-5-----

Riff 2 (again)

Riff 3 (again)

Riff 2 (again)

Then:

Riff 4:
-------------------------
-------------------------
-7-----------7-----------
---5-5-5-------5-5-5-----

Riff 5:
-------------------------
-------------------------
---7-7-7-----7-----------
-7-------------5-5-5-----

Then repeat this pattern throughout the song.

Very easy and simple reggae bassline, but it sounds hypnotic when played 
with a band.

Comments