Abandoned Pools - Lvbd Chords & Tabs

 

Lvbd Chords & Tabs

Abandoned Pools Chords & Tabs

Version: 1 Type: Tab 1 rating
1 star 2 stars 3 stars 4 stars 5 stars
comments

Lvbd Tab

   
Intro

e----------------------------------
B----------------------------------
G----------------------------------
D-1-1-1-1-1-1-1-1-1-1---0-0-3-3-2-1
A-1-1-1-1-1-1-1-1-1-1---0-0-3-3-2-1
D-1-1-1-1-1-1-1-1-1-1---0-0-3-3-2-1

Verse

e------------------
B------------------
G------------------
D-0-0-3-3-2-1------   (Repeat 7 times)
A-0-0-3-3-2-1------
D-0-0-3-3-2-1------

Pre-Chorus

e--------------------
B--------------------
G--------------------
D-0-0-8-8-8-0-0-8-7-6    (Repeat 3 times)
A-0-0-8-8-8-0-0-8-7-6
D-0-0-8-8-8-0-0-8-7-6

Chorus (Strum Chords)
[ Tab from: http://www.guitartabs.cc/tabs/a/abandoned_pools/lvbd_tab.html ]
e-------------------------------------------
B-------------------------------------------
G-------------------------------------------
D-8---5---3---5---8---5---3---1-1-1-1-1-1-1-               
A-8---5---3---5---8---5---3---1-1-1-1-1-1-1-
D-8---5---3---5---8---5---3---1-1-1-1-1-1-1-

Bridge (Let Chords Ring)

e---------------------------------------------------------
B---------------------------------------------------------
G---------------------------------------------------------
D-0-0-3-3-2-1--0------1------0------1------0------1-003321
A-0-0-3-3-2-1--0------1------0------1------0------1-003321
D-0-0-3-3-2-1--0------1------0------1------0------1-003321

this is the basic stuff
Comments