Aaron - Fury Chords & Tabs

 

Fury Chords & Tabs

Aaron Chords & Tabs

Version: 1 Type: Bass Tab 0 ratings
1 star 2 stars 3 stars 4 stars 5 stars
comments

Fury Bass Tab

Tabbed By: Aaron hendry
Song: Fury
Band:Cable
Email Address: Dopebox_is_high@hotmail.com
Bass
E|-----------------------------------|
B|-----------------------------------|
G|-----------------------------------|
D|-----7--5--------------------------|x3
A|-----------7-----------------------|
E|--5--------------------------------|

E|-----------------------------------|
B|-----------------------------------|
G|-----------------------------------|
D|-----------7-----------------------|x3
A|-----7--5--------------------------|
E|--5--------------------------------|

E|-----------------------------------|
B|-----------------------------------|
G|-----------------------------------|
D|--------5--7-----------------------|x3
A|-----7-----------------------------|
E|--5--------------------------------|
[ Tab from: http://www.guitartabs.cc/tabs/a/aaron/fury_btab.html ]
E|-----------------------------------|
B|-----------------------------------|
G|-----------------------------------|
D|-----------5-----------------------|x3
A|-----5--7--------------------------|
E|--7--------------------------------|

E|-----------------------------------|
B|-----------------------------------|
G|-----------------------------------|
D|-----------5-----------------------|x3
A|-----7--5--------------------------|
E|--5--------------------------------|

E|-----------------------------------|
B|-----------------------------------|
G|-----------------------------------|
D|-----------5--7--------------------|x3
A|-----5--7--------------------------|
E|--7--------------------------------|

E|-----------------------------------|
B|-----------------------------------|
G|-----------------------------------|
D|-------7--5-----7^^^---------------|x3
A|-------------7---------------------|
E|--5-5------------------------------|
Comments