Aaroh - Ajnabi Chords & Tabs

 

Ajnabi Chords & Tabs

Aaroh Chords & Tabs

Version: 1 Type: Tab 0 ratings
1 star 2 stars 3 stars 4 stars 5 stars
comments

Ajnabi Tab

		     SONG NAME Aaroh
Tabbed by: Ammar Baig
Email:ammarbaig674@hotmail.com

Tuning:Standard

1st Solo:
e|---------------------------------------------------------------------------|
B|--12--h14----2p0----7-7-5-3-2--------2-4-5-slide--14--9-9-7h9-5-4-7p5p4----|
G|------------------------------2-2h4----------------------------------------|
D|---------------------------------------------------------------------------|
A|---------------------------------------------------------------------------|
E|---------------------------------------------------------------------------|
               here is two tapping part with pulloff's
e|--------------5-5h7t9p7p5t9-----------------------------------4------------|
B|-2-0---0-h2-----------------5h7t9p7p5t9----x-3-whole process---------------|
G|-----1---------------------------------------------------------------------|
D|---------------------------------------------------------------------------|
A|---------------------------------------------------------------------------|
E|---------------------------------------------------------------------------|
[ Tab from: http://www.guitartabs.cc/tabs/a/aaroh/ajnabi_tab.html ]
e|---t12p9p7t12p7p9--t12p9p7p5t12p9p7p5-7h9----------------------------------|
B|---------------------------------------------------------------------------|
G|---------------------------------------------------------------------------|
D|---------------------------------------------------------------------------|
A|---------------------------------------------------------------------------|
E|---------------------------------------------------------------------------|
Second solo:
e|---------------------------------------------------------------------------|
B|---------------------------------------------------------------------------|
G|--4---6----4--6---4---------------------------4-6-4-6-4--------------------|
D|--4---6----4--6---4--x3-4-2h4--2h4--2---------4-6-4-6-4--x-3---------------|
A|--2---4----2--4---2---------------4--4h2-4----2-4-4-4-2--------------------|
E|---------------------------------------------------------------------------|
|


e|------------------------------5-7-9-7-5------5-----------------------------|
B|----------------------5-7-9-------------9-7----9---slide to 0--------------|
G|---------------4-6-8-------------------------------------------------------|
D|--------4-6-7--------------------------------------------------------------|
A|--4-6-7--------------------------------------------------------------------|
E|---------------------------------------------------------------------------|

e|--------------------------------4-5-7-----9--11--12h14--16-17-16-----------|
B|-------------------------7-9-10--------------------------------------------|
G|-------------9--11--13-----------------------------------------------------|
D|--11--13-14----------------------------------------------------------------|
A|---------------------------------------------------------------------------|
E|---------------------------------------------------------------------------|

e|-17--17-16-14--16-14-12--14-12-11--12-11-9--11-9-7--9-7-5---5--------------|
B|----------------------------------------------------------9---9-7--9-7-5---|
G|---------------------------------------------------------------------------|
D|---------------------------------------------------------------------------|
A|---------------------------------------------------------------------------|
E|---------------------------------------------------------------------------|

e|---------------------------------------------------------------------------|
B|--7p9p11--7p9p11--7p9p11-7p9p11--7h9---------------------------------------|
G|---------------------------------------------------------------------------|
D|---------------------------------------------------------------------------|
A|---------------------------------------------------------------------------|
E|---------------------------------------------------------------------------|
Comments