A Wilhelm Scream - Rip Chords & Tabs

 

Rip Chords & Tabs

A Wilhelm Scream Chords & Tabs

Version: 1 Type: Tab 0 ratings
1 star 2 stars 3 stars 4 stars 5 stars
comments

Rip Tab

-----------------------------------------------------------------------------
			     The Rip - A Wilhelm Scream
-----------------------------------------------------------------------------
This Appears to be the first AWS tab on here. AWS's debut album MUTE PRINT is out on NITRO RECORDS now!

Tabbed by: Raino_32	
Email: raino_32@yahoo.com
Band: A Wilhelm Scream
Album: Mute Print

Tuning: STANDARD

INTRO GUITAR 1 0:00
e|----------------------------------------------|
B|----------------------------------------------|
G|----------------------------------------------| X2
D|-0-0-8p7-8p7-1010101010101010-0-0-8p7-8p7-10~-|
A|----------------------------------------------|
E|----------------------------------------------|

e|------------------------------------------------------------|
B|------------------------------------------------------------|
G|------------------------------------------------------------|
D|-0-0-8p7-8p7-8-0-10-0-8-0-7-0--0-0-8p7-8p7-8-0-10-0-8-0-7-0-|
A|------------------------------------------------------------|
E|------------------------------------------------------------|

e|----------------------------------------------|
B|----------------------------------------------|
G|----------------------------------------------|
D|-0-0-8p7-8p7-1010101010101010-0-0-8p7-8p7-10~-|
A|----------------------------------------------|
E|----------------------------------------------|

e|------------------------------------------------------------|
B|------------------------------------------------------------|
G|------------------------------------------------------------|
D|-0-0-8p7-8p7-8-0-10-0-8-0-7-0--0-0-8p7-8p7-8-0-10-0-8-0-7-0-|
A|------------------------------------------------------------|
E|------------------------------------------------------------|
[ Tab from: http://www.guitartabs.cc/tabs/a/a_wilhelm_scream/rip_tab.html ]
e|-----------------------------------------------|
B|-----------------------------------------------|
G|-----------------------------------------------|
D|-0-0-8p7-8p7-1010101010101010--0-0-8p7-8p7-10~-|
A|-----------------------------------------------

E|-----------------------------------------------|

  INTRO GUITAR 2 0:04
e|-----6p5-6p5-88888888------6p5-6p5-8~-|
B|-3-3-------------------3-3------------|
G|--------------------------------------| X1
D|--------------------------------------|
A|--------------------------------------|
E|--------------------------------------|

e|-----6p5-6p5-6---8---6---5--------6p5-6p5-6---8---6---5---|
B|-3-3-----------3---3---3---3--3-3-----------3---3---3---3-|
G|----------------------------------------------------------|
D|----------------------------------------------------------|
A|----------------------------------------------------------|
E|----------------------------------------------------------|

e|-----6p5-6p5-88888888-----------------|
B|-3-3-------------------3-3-6p5-6p5-8~-|
G|--------------------------------------|
D|--------------------------------------|
A|--------------------------------------|
E|--------------------------------------|

e|-----6p5-6p5-6---8---6---5--------6p5-6p5-6---8---6---5---|
B|-3-3-----------3---3---3---3--3-3-----------3---3---3---3-|
G|----------------------------------------------------------|
D|----------------------------------------------------------|
A|----------------------------------------------------------|
E|----------------------------------------------------------|

e|-----6p5-6p5-88888888------6p5-6p5-8~-|
B|-3-3-------------------3-3------------|
G|--------------------------------------|
D|--------------------------------------|
A|--------------------------------------|
E|--------------------------------------|
Comments