A Tribute To Metal - Blues Jamming Chords & Tabs

 

Blues Jamming Chords & Tabs

A Tribute To Metal Chords & Tabs

Version: 1 Type: Tab 2 ratings
1 star 2 stars 3 stars 4 stars 5 stars
comments

Blues Jamming Tab

    A Tribute To Metal - Blues Jamming

           Guitar Tab

                          * = +3   @ = +1  


  Intro


E|-4-4-4-|-3-3-3-|-2-2-2-|-0------2------------------------------------------------------|
H|-3-3-3-|-2-2-2-|-1-1-1-|-0------0------------------------------------------------------|
G|-4-4-4-|-3-3-3-|-2-2-2-|-1------2------------------------------------------------------|
D|-------|-------|-------|--------1------------------------------------------------------|
A|-------|-------|-------|---0-1--2------------------------------------------------------|
E|-------|-------|-------|---------------------------------------------------------------|

verse

            Guitar 1
[ Tab from: http://www.guitartabs.cc/tabs/a/a_tribute_to_metal/blues_jamming_tab.html ]
E|---------|---------|---------|---------|----------|-------------*----------------------|
H|---------|---------|---------|---------|----------|-------------*----------------------|
G|---------|---------|---------|---------|----------|-------------*----------------------|
D|---------|---------|---------|---------|--2-2-4-4-|-2-2-4-4-----*----------------------|
A|-2-2-4-4-|-2-2-4-4-|-2-2-4-4-|-2-2-4-4-|--0-0-0-0-|-0-0-0-0-----*----------------------|
E|-0-0-0-0-|-0-0-0-0-|-0-0-0-0-|-0-0-0-0-|----------|-------------*----------------------|


verse 
             
          Guitar 2

E|-----------------------@-|-----------------------|---------------------|---------------|
H|-----------------------@-|-----------------------|---------------------|---------------|
G|-----------------------@-|----------2-2----------|---------------------|---------------|
D|----------2-2----------@-|------2-4-----4-2------|---------2-2---------|---------------|
A|-----2-4------4-2------@-|--0-4-------------4-0--|-----2-4-----4-2-----|-----2-4--1-2--|
E|-0-4--------------4-0--@-|-----------------------|-0-4-------------4-0-|-0-4-----------|


  End  
        
          Guitar 1

E|-4-4-4-|-3-3-3-|-2-2-2-|-0-------2--0---0---------------------------------------------|
H|-3-3-3-|-2-2-2-|-1-1-1-|-0-------0--2---0---------------------------------------------|
G|-4-4-4-|-3-3-3-|-2-2-2-|-1-------2--0---1---------------------------------------------|
D|-------|-------|-------|---------1--2-------------------------------------------------|
A|-------|-------|-------|----0-1--2--0-------------------------------------------------|
E|-------|-------|-------|--------------------------------------------------------------|
Comments