A Thorn For Every Heart - A Night To Remember A Morning To Forget Chords & Tabs

 

A Night To Remember A Morning To Forget Chords & Tabs

A Thorn For Every Heart Chords & Tabs

Version: 1 Type: Bass Tab 0 ratings
1 star 2 stars 3 stars 4 stars 5 stars
comments

A Night To Remember A Morning To Forget Bass Tab

   
A Thorn For Every Heart - A Night To Remember, A Morning To Forget 

This is a tab from the Silence is Golden version of the song, or the E.P. to
Things Aren't So Beautiful Now.  Anyways, this song has everything you need
for the New Version, for it's just a shorter version of the old one. Once
again, i guarantee almost 100% of this tab to be correct, and if you need
a song tabbed, then:

Email me at

ScorpDave@aol.com

Tuning D, A, D, G.

[cont.] = Continuation

Verse 1 (0:01)
G|--------------------------------|
D|--------------------------------|
A|----------------00-00-00-00-000-|x4
D|33-33-33-33-333-----------------|

Bridge (0:23)
G|---------------|
D|---------0---0-|
A|0---0----------|x1
D|---------------|

Bridge [cont.] (0:29)
G|----------------|
D|----------------|
A|0---0-----------|x1
D|---------0-0--0-|

Bridge (0:35)
G|---------------|
D|---------0---0-|
A|0---0----------|x1
D|---------------|

Bridge [cont.] (0:40)
G|----------------|
D|----------------|
A|0---0-----------|x1
D|---------0-0--0-|

Interlude (0:46)
G|-----------------9--76-------------------------------|
D|------7---7-0--07------------7---7-0--0--------------|
A|0---07---7-7-----------0---07---7-7------------------|x1
D|----------------------------------------0-0--3-23-232|

Interlude [cont.] (1:02)
G|----------------9--76----------------------------------|
D|------7--7-0--07------------7---7-0--0-----------------|
A|0---07--7-7-----------0---07---7-7---------------------|x1
D|---------------------------------------0-0-023-323-3223|

Verse 2 (1:22)
G|-----------------------------|
D|-----------------------------|
A|---------------11111111111111|x2
D|333333333333333--------------|

Verse 3 (1:32)
G|-------------------------------|
D|-------------------------------|
A|---------------1-11-11-1-11-11-|x1
D|3-33-33-3-33-33----------------|

Verse 4 (1:38)
G|------------------------------|
D|------------------------------|
A|---------------111111111111111|x1
D|3-33-33-3-33-33---------------|

Chorus (1:42)
G|-------------|
D|-------------|
A|----1----3--5|x4
D|0000-0000-00-|

Verse 2 (1:52)
G|-----------------------------|
D|-----------------------------|
A|---------------11111111111111|x2
D|333333333333333--------------|

Verse 3 (2:03)
G|-------------------------------|
D|-------------------------------|
A|---------------1-11-11-1-11-11-|x1
D|3-33-33-3-33-33----------------|
[ Tab from: http://www.guitartabs.cc/tabs/a/a_thorn_for_every_heart/a_night_to_remember_a_morning_to_forget_btab.html ]
Verse 4 (2:08)
G|------------------------------|
D|------------------------------|
A|---------------111111111111111|x1
D|3-33-33-3-33-33---------------|

Chorus (2:13)
G|-------------|
D|-------------|
A|----1----3--5|x3
D|0000-0000-00-|

Chorus [cont.] (2:20)
G|----------------|
D|----------------|
A|----1----3--5---|x1
D|0000-0000-00-3--|

Verse 1 (2:25)
G|--------------------------------|
D|--------------------------------|
A|----------------00-00-00-00-000-|x4
D|33-33-33-33-333-----------------|

Bridge (2:48)
G|---------------|
D|---------0---0-|
A|0---0----------|x1
D|---------------|

Bridge [cont.] (2:54)
G|----------------|
D|----------------|
A|0---0-----------|x1
D|---------0-0--0-|

Bridge (2:59)
G|---------------|
D|---------0---0-|
A|0---0----------|x1
D|---------------|

Bridge [cont.] (3:05)
G|----------------|
D|----------------|
A|0---0-----------|x1
D|---------0-0--0-|

Interlude (3:10)
G|-----------------9--76-------------------------------|
D|------7---7-0--07------------7---7-0--0--------------|
A|0---07---7-7-----------0---07---7-7------------------|x1
D|----------------------------------------0-0--3-23-232|

Interlude [cont.] (3:26)
G|----------------9--76----------------------------------|
D|------7--7-0--07------------7---7-0--0-----------------|
A|0---07--7-7-----------0---07---7-7---------------------|x1
D|---------------------------------------0-0-023-323-3223|

Verse 2 (3:45)
G|-----------------------------|
D|-----------------------------|
A|---------------11111111111111|x2
D|333333333333333--------------|

Verse 3 (3:56)
G|-------------------------------|
D|-------------------------------|
A|---------------1-11-11-1-11-11-|x1
D|3-33-33-3-33-33----------------|

Verse 4 (4:01)
G|------------------------------|
D|------------------------------|
A|---------------111111111111111|x1
D|3-33-33-3-33-33---------------|

Chorus (4:06)
G|-------------|
D|-------------|
A|----1----3--5|x4
D|0000-0000-00-|

Verse 2 (4:16)
G|-----------------------------|
D|-----------------------------|
A|---------------11111111111111|x2
D|333333333333333--------------|

Verse 3 (4:26)
G|-------------------------------|
D|-------------------------------|
A|---------------1-11-11-1-11-11-|x1
D|3-33-33-3-33-33----------------|

Verse 4 (4:31)
G|--------------------------------|
D|--------------------------------|
A|---------------111111111111111--|x1
D|3-33-33-3-33-33---------------3-|
Comments