A Taste Of Honey - Boogie Oogie Oogie Chords & Tabs

 

A Taste Of Honey Chords & Tabs

Version: 1 Type: Tab 0 ratings
1 star 2 stars 3 stars 4 stars 5 stars
comments

Boogie Oogie Oogie Tab

   
Band:A Taste of Honey
Song:Boogie Oogie Oogie
Tabbed By:Michael Choy
sixdegrees.50megs.com

This is a great funky disco song that any band can play because there
is no horn section.  Put it in the middle of your set and watch the
girls go crazy!!  This version has been transcribed for 2 guitars and
bass.  Have fun!!

 Intro
 Guitar 1 w/delay
|-----------------------------------------------------------------|--|
|---8/10-(5x)------11/13-(5x)---------------8/10-(5x)-------------|--|
|-----------------------------------------------------------------|--|
|-----------------------------------------------------------------|--|
|-----------------------------------------------------------------|--|
|-----------------------------------------------------------------|--|
|                                                                 |
| |   |   |   |   |   |   |   |   |   |   |   |   |   |   |   |   |
|Guitar 2 Rhythm                                                  |
|-5-------5-----5-----------5---5---------------------------------|--|
|-8-------6-----6-----------6---6-6--------6xxx-x6xx6-xx-x6xx6xxx-|--|
|-5-------5-----5-----------5---5-7--------7xxx-x7xx7-xx-x7xx7xxx-|--|
|-7------(7)---{7)----------------8--------8xxx-x8xx8-xx-x8xx8xxx-|--|
|-----------------------------------------------------------------|--|
|-----------------------------------------------------------------|--|
|                                                                 |
| |   |   |   |   |   |   |   |   |   |   |   |   |   |   |   |   |
|Bass                                                             |
|---------5-----7-------10--------12------10------9-------7-------|--|
|------5-7--------------------------------------------------7-----|--|
|-5------------------------------10-----8-------------------------|--|
|---------------------------------------------------------------5-|--|


 Guitar 1 (con)
|-----------------------------------------------------------------|--|
|---8/10-(5x)------11/13-(5x)---------------8/10-(5x)-------------|--|
|-----------------------------------------------------------------|--|
|-----------------------------------------------------------------|--|
|-----------------------------------------------------------------|--|
|-----------------------------------------------------------------|--|
|                                                                 |
| |   |   |   |   |   |   |   |   |   |   |   |   |   |   |   |   |
|Guitar 2 Rhythm (con)                                            |
|-5-------5-----5-----------5---5---------------------------------|--|
|-8-------6-----6-----------6---6-6--------6xxx-x6xx6-xx-x6xx6xxx-|--|
|-5-------5-----5-----------5---5-7--------7xxx-x7xx7-xx-x7xx7xxx-|--|
|-7------(7)---{7)----------------8--------8xxx-x8xx8-xx-x8xx8xxx-|--|
|-----------------------------------------------------------------|--|
|-----------------------------------------------------------------|--|
|                                                                 |
| |   |   |   |   |   |   |   |   |   |   |   |   |   |   |   |   |
|Bass (con)                                                       |
|---------5-----7-------10--------12----1414------141210--9-------|--|
|------5-7--------------------------------------------------7-----|--|
|-5------------------------------10-------------------------------|--|
|-----------------------------------------------------------------|--|
                                                         end intro


Bass interlude 2x
  |   |   |   |   |   |   |   |   |   |   |   |   |   |   |   |
|---7-7-------------7-7-----7---6---5-5-------------5-5-----5---6-|--|
|%---------------------------------------------------------------%|--|
|%5-----0-3---3-5-------0-5---4---3-----0-3---3-3-------0-3---4--%|--|
|-----------------------------------------------------------------|--|
[ Tab from: http://www.guitartabs.cc/tabs/a/a_taste_of_honey/boogie_oogie_oogie_tab.html ]
Section A. Entire Band 2x , then verse 4x
Guitar 1
|-----------------------------------131313----------131313--------|--|
|--(Palm Mute throughout)-----------111111----------111111--------|--|
|-777-7-7x7-x7-79-777-7-7x7-x7-79---------------------------------|--|
/5----------------------------------------------------------------|--|
|-----------------------------------------------------------------|--|
|-----------------------------------------------------------------|--|
|                                                                 |
| |   |   |   |   |   |   |   |   |   |   |   |   |   |   |   |   |
|Guitar 2 Rhythm                                                  |
|-5------(5)----5-----------5---5---------------------------------|--|
|-8-------6-----6-----------6---6-6-------------------------6--6--|--|
|-5-------5-----5-----------5---5-7-------------------------7--7--|--|
|-7------(7)---{7)----------------8-------------------------8--8--|--|
|-----------------------------------------------------------------|--|
|-----------------------------------------------------------------|--|
|                                                                 |
| |   |   |   |   |   |   |   |   |   |   |   |   |   |   |   |   |
|Bass                                                             |
|---7-7-------------7-7-----7---6---5-5-------------5-5-----5---6-|--|
|-----------------------------------------------------------------|--|
|-5-----0-3---3-5-------0-5---4---3-----0-3---3-3-------0-3---4---|--|
|-----------------------------------------------------------------|--|


Chorus
Guitar 1
|-5-----5-------5-------3---------5-----5-------5-------3---------|--|
|-5-----6-------3-------5---------5-----6-------3-------5---------|--|
|-5-----5-------3-------x---------5-----5-------3-------x---------|--|
|-5-----7-------x-------5---------5-----7-------x-------5---------|--|
|-7-----5-------5-------3---------7-----5-------5-------3---------|--|
|-5-------------3-----------------5-------------3-----------------|--|
|"get on up on the floor . . ."                                   |
| |   |   |   |   |   |   |   |   |   |   |   |   |   |   |   |   |
|Guitar 2 Rhythm                                                  |
|-5----(5)------5-----------------5-----5-------5-----------------|--|
|-8-----6-------6-------8---------8-----6-------6-------8---------|--|
|-5-----5-------7-------9---------5-----5-------7-------9---------|--|
|-5----(7)-----(8)------10--------5-----7-------8-------10--------|--|
|-7-----5-------------------------7-----5-------------------------|--|
|-----------------------------------------------------------------|--|
|                                                                 |
| |   |   |   |   |   |   |   |   |   |   |   |   |   |   |   |   |
|Bass                                                             |
|---------------------------5------------------------------4/5----|--|
|-----------------------------------------------------------------|--|
|---3-4-5-----------1-2-3-----3-----3-4-5-----------1-2-3---------|--|
|-5---------5-4-3---------------6-5---------5-4-3-----------------|--|

play section A. 2x then
Guitar solo w/ phaser
|-------------101310-------------------------------------------------|
|-13b15r13----------13101310-----------------------------------------|
|---------------------------131210----1010--10-12b14r13-13/14--------|
|---------------------------------1212----12-------------------------|
|--------------------------------------------------------------------|
|--------------------------------------------------------------------|
 solo (con.)
|-------------1315b17r16----13---13-----13-----13-----13-----13------|
|-131513151315-----------15---15---13h15--13h15--13h15--13h15--------|
|--------------------------------------------------------------------|
|--------------------------------------------------------------------|
|--------------------------------------------------------------------|
|--------------------------------------------------------------------|
                                prebend 10th fret to 12
|-13-----13-----1315b16-13p10\7--------------------------------------|
|---13h15--13h15----------------(12)12r10----------------------------|
|-----------------------------------------12b13r1210--10-12b13r12\---|
|---------------------------------------------------12---------------|
|--------------------------------------------------------------------|
|--------------------------------------------------------------------|

verse (section A.) 4x
chorus
Section A 2x
Bass interlude 2x
chorus 2x
Section A til fade out
Comments