A Taste Of Honey - Boogie Oogie Oogie Chords & Tabs

 

Boogie Oogie Oogie Chords & Tabs

A Taste Of Honey Chords & Tabs

Version: 2 Type: Bass Tab 0 ratings
1 star 2 stars 3 stars 4 stars 5 stars
comments

Boogie Oogie Oogie Bass Tab

   
Song: Boogie Oogie Oogie
Artist: A Taste of Honey

e = eigth note
q = quarter note
r = rest
p = pop
h = hammer-on

Intro:

G:------------------10-----12--10---9--------------------------
D:-0-/--10---12--------------0---0-----12----------------------
A:-------------------------------------------------------------
E:-------------------------------------------------------------

G:------------------10-----12---14------14--12--10--9----------
D:-0-/--10---12------------------------------------------------
A:-------------------------------------------------------------
E:-------------------------------------------------------------



Verse:


G:----77------------77------7---6----55--------55-------5---6--
D:-------------------------------------------------------------
A:-5-------0h3--3/5-----0-5---4----3----0h3--3-----0--3---4----
E:-------------------------------------------------------------


Chorus I:
[ Tab from: http://www.guitartabs.cc/tabs/a/a_taste_of_honey/boogie_oogie_oogie_btab_ver_2.html ]
   e e e q   e e q e e q  e e e   e e e q  e e q  e e  r  q 
                                                         (p)
G:--------------------------------------------------------5----
D:--------------------------2-4--------------------------------
A:-0-2-4-5---2-0---0-2-3--5-------0-2-4-5--2-0----0-2----------
E:---------------3-----------------------------3---------------

-repeat verse-


Chorus II:
                                   
   e e e q   e e q e e q eee  e e e q  e e q e e q 
                                                 
G:-----------------------5-------------------2-4-5-------------
D:------------------------5------------2-3-5-------------------
A:-0-2-4-5---2-0---0-2-3---5--0-2-4-5--------------------------
E:---------------3---------------------------------------------



Bass solo: Play verse once, then the following-

                                          (p  p  p  p)  
G:---77----------77----7----6------55---------5-----3----------
D:-----------------------------------------------3-------------
A:-5----0h3--3/5----0-5-5--4-4---3----0h3--3-------------------
E:-------------------------------------------------------------



-repeat Chorus II, then Chorus I and fade out-




Transcribed by Christopher Funicelli
Comments or suggestions, please email me at cfunz@aol.com
Comments