A Static Lullaby - Withered Chords & Tabs

 

Withered Chords & Tabs

A Static Lullaby Chords & Tabs

Version: 2 Type: Tab 0 ratings
1 star 2 stars 3 stars 4 stars 5 stars
comments

Withered Tab

E|------------------------------1------------3---1-|
B|-----------------------------3-------------------|
G|---3-2-2-3p2-2p0-0-----2h3--3---2--3p2-2p0-------|
D|-------------------3-3---------------------------|
A|-------------------------------------------------|
E|-------------------------------------------------|

[ Tab from: http://www.guitartabs.cc/tabs/a/a_static_lullaby/withered_tab_ver_2.html ]
E|-----------------------------------------------------|
B|---11p10----13p10----11p10----13p10-----11p10--------|
G|---------10-------10-------10-------10--------10-----|     2x
D|-----------------------------------------------------|
A|-----------------------------------------------------|
E|-----------------------------------------------------|


E|---13-------------------------------------------------------------------------------|
B|------10-11-10----10-11-10-13--11--11/10---10h11-10h11-10h11-10h11--11-10-11-10-11~-|
G|---------------10-------------------------------------------------------------------|
D|------------------------------------------------------------------------------------|
A|------------------------------------------------------------------------------------|
E|------------------------------------------------------------------------------------|
Comments