A Static Lullaby - The Shooting Star That Destroyed Us All Chords & Tabs

 

The Shooting Star That Destroyed Us All Chords & Tabs

A Static Lullaby Chords & Tabs

Version: 1 Type: Bass Tab 0 ratings
1 star 2 stars 3 stars 4 stars 5 stars
comments

The Shooting Star That Destroyed Us All Bass Tab

   
A Static Lullaby - The Shooting Star That Destroyed Us All
Tuning: D A D G

Introx1
G|--------------------------------------------------|
D|--------------------------------------------------|
A|--------------------------------------------------|
D|-3-x-------------------3-3-x----------------------|

  x1
G|-------------------------------------------------|
D|-------------------------------------------------|
A|-------------------------------------------------|
D|-8/-33-33-333333-0000000000-7777777777-888888888-|

  x1
G|----------------------------------------------|
D|----------------------------------------------|
A|----------------------------------------------|
D|-33-33-333333-0000000000-7777777777-888888888-|

Chorusx2 
G|-------------------------------------------|
D|---------------------------77-5------88-75-|
A|-------------------------------7-----------|
D|-333333333-000000000-777777-----88888------|

Post Chorusx2
G|------------------------------------------------------|------------------|
D|------------------------------------------------------|------------------|
A|------------------------------------------------------|-5(x24)-----------|
D|-3-0~----3-0(x18)-3-0(x18)----------------------------|------------------|
[ Tab from: http://www.guitartabs.cc/tabs/a/a_static_lullaby/the_shooting_star_that_destroyed_us_all_btab.html ]
Chorusx2
G|---------------------------------------------|
D|---------------------------777-5------888-75-|
A|--------------------------------7------------|
D|-333333333-000000000-777777------88888-------|

   x3            x1
G|-------------|-------------|
D|-------------|-------------|
A|-5----3---55-|-5----3---5x-|
D|--02/3-3/2---|--02/3-3/2---|

   x8
G|-------------|
D|-------------|
A|-5----3---55-|
D|--02/3-3/2---|
   
   x4
G|-----------|
D|-----------|
A|-----------|
D|-0~--2~-3~-|
  
  x2
G|--------------------------------------------------|
D|--------------------------------------------------|
A|--------------------------------------------------|
D|-777777-75-3333-2-3333-5/777777-75-3333-2-3333-5/-|
  
   x4
G|-----------|
D|-----------|
A|-----------|
D|-0~--2~-3~-|
   
   x2
G|----------------------------------------------------------|
D|----------------------------------------------------------|
A|---------------------------------------------------5------|
D|-000000000000-8888888888888-000000000000-88888-02/3-55/32-|

Chorusx2 
G|---------------------------------------------|
D|---------------------------777-5------888-75-|
A|--------------------------------7------------|
D|-333333333-000000000-777777------88888-------|

Continue x2
G|--------------------------------------------|
D|--------------------------------------------|
A|--------------------------------------------|
D|-3333333333-0000000000-7777777777-888888888-|

End
G|----|
D|----|
A|----|
D|-3~-|
Comments