A Static Lullaby - Radio Flyers Last Journey Chords & Tabs

 

Radio Flyers Last Journey Chords & Tabs

A Static Lullaby Chords & Tabs

Version: 1 Type: Tab 0 ratings
1 star 2 stars 3 stars 4 stars 5 stars
comments

Radio Flyers Last Journey Tab

Drop D tuning
/ = slide up
\ = slide down
X = palm mute
Forewarning: For some chords I only put one strum, that doesn't mean play it only once.
Listen to the song to determine the strumming pattern and the number of times to play
it.
And don't worry, it's 100% correct.
Guitar 1 = rhythm guitar
Guitar 2 = lead guitar

Intro
(Guitar 1)
-----------------------------------------------------------------------|
-----------------------------------------------------------------------|
-4-------4-------4-------4-6-7-9-11-12---------------------------------|
-4---5---4---5---4---5---4-6-7-9-11-12---------------------------------|
-2---5---2---5---2---5---2-4-5-7-9--10---------------------------------|
-----5-------5-------5-------------------------------------------------|
(Guitar 2)
-----------------------------------------------------------------------|
-----------------------------------------------------------------------|
--------4-6-7-6--9-11-7----6/7\6-4--6/7\6-4--6-------------7-----------|
-----5--x-x-x-x--x--x-x------------------------7---5-----0---7---------|
-----5--2-4-5-4--7--9-5----------------------------5-------------------|
-----5---------------------------------------------5-------------------|

Verse   4x
(Guitar 1 + 2)
------------------------------------------------------------|
-X----------------------------------------------------------|
-4----------------------------------------------------------|
-4------------5---------------------------------------------|
-2------------5---------------------------------------------|
--------------5---------------------------------------------|

Pre-Chorus
(Guitar 1 + 2)
------------------------------------------------------------|
------------------------------------------------------------|
------------------------XXX---XXX---XXX---XXX---------------|
--7----5----0---2---5---222-2-222-2-000-0-000-0----5---7----|
--7----5----0---2---5---222-2-222-2-000-0-000-0----5---7----|
--7----5----0---2---5---222-2-222-2-000-0-000-0----5---7----|

Chorus   4x
(Guitar 1)
--------------------------------------------------------|
--------------------------------------------------------|
----X----X----X-----------------------------------------|
-00-0-00-0-00-0-00----5---------------------------------|
-00-0-00-0-00-0-00----5---------------------------------|
-00-0-00-0-00-0-00----5---------------------------------|
(Guitar 2)
--------------------------------------------------------|
--------------------------------------------------------|
-666-777-999-111111-------------------------------------|
-xxx-xxx-xxx--x-x-x---5---------------------------------|
-666-777-999-111111---5---------------------------------|
----------------------5---------------------------------|
[ Tab from: http://www.guitartabs.cc/tabs/a/a_static_lullaby/radio_flyers_last_journey_tab.html ]
Post Chorus
(Guitar 1 + 2)
---0-------------------------------------------------------------------|
---0--------last-rep-----X-X-X-X--X--X-------XXX----XXX----XXX---------|
-X-0-6-------6-7-4-------4-6-7-12-11-9------444-4--666-6-777-7-------|
-0-0-6-7-x4--6-7-4-------4-6-7-12-11-9------444-4--666-6-777-7--x4---|
-0-0-4-7-----4-5-2-------2-4-5-10-9--7------222-2--444-4-555-5-------|
-0-----7---------------------------------------------------------------|


Intro

Verse   4x

Chorus  4x

Bridge
(Guitar 1)
------------------------------------------------|
--X---------------------------------------------|
--7--X--X---------------------------------------|
--7--7--5-2x-----------------------------------|
--5--7--5---------------------------------------|
-----7--5---------------------------------------|
(Guitar 2)
-----------------------------------------------|
-----------------------------------------------|
---7---7-2---2---------------------------------|
-----------0-----------------------------------|
-----------------------------------------------|
-----------------------------------------------|

(Guitar 1)
--------------------------------------------------------------------|
--------------------------------------------------------------------|
-XXXX--XXXX--XXXX--XXXX---------------------------------------------|
-5555--4444--2222--0000--8x-----------------------------------------|
-5555--4444--2222--0000---------------------------------------------|
-5555--4444--2222--0000---------------------------------------------|
(Guitar 2)
----------------------------------------------|
-7---8-7---7----------------------------------|
---------------8x-----------------------------|
---------7------------------------------------|
----------------------------------------------|
----------------------------------------------|

-17----15-14----------------------------------|
----15-------15---8x--------------------------|
----------------------------------------------|
----------------------------------------------|
----------------------------------------------|
----------------------------------------------|


Outro
(Guitar 1 + 2)
------------------------------------------------------|
------------------------------------------------------|
--7--------------12--11-------------------------------|
--7--------------12--11-----repeat--------------------|
--5--------------10--9--------------------------------|
------------------------------------------------------|

-----------------------------------------------------|
-----------------------------------------------------|
-----------------------------------------------------|
--0--7--0--5--0--4--0--------------------------------|
--0--7--0--5--0--4--0--------------------------------|
--0--7--0--5--0--4--0--------------------------------|
Comments