A Static Lullaby - Love To Hate Hate To Me Chords & Tabs

 

Love To Hate Hate To Me Chords & Tabs

A Static Lullaby Chords & Tabs

Version: 1 Type: Bass Tab 0 ratings
1 star 2 stars 3 stars 4 stars 5 stars
comments

Love To Hate Hate To Me Bass Tab

   
-------------------------------------------------------------------------------
			     SONG NAME - Band Name
-------------------------------------------------------------------------------

Tabbed By : Mario sockar
e-mail:

Tuning:drop d (re)

  intro:              Verses(versos):
G|------------------  --------------------------------------------------------|
D|------------------  --------------------------------------------------------|
A|------------------  --------------------------------------------------------|
d|-0~-000-0~-000----  -4444444444444444-44444442222222-44444444444444---------|

 verse cont:          "as your eyes close..." x2
G|------------------  --------------------------------------------------|
D|------------------  --------------------------------------------------|
A|------------------  ------------------2222222/4444\55555555-----------|
d|-4444444422222222-  -0~-44-44-22-22-0~--------------------------------|

  chorus (coro)x2:
G|---------------------------------------------------------------------|
D|---------------------------------------------------------------------|
A|--------------------------------------------------55555555/4444444---|
d|-5555555555555555-7777777777777777-444444444444444-------------------|

 verse again (verso otra vez)
[ Tab from: http://www.guitartabs.cc/tabs/a/a_static_lullaby/love_to_hate_hate_to_me_btab.html ]
 (1:23): x2
G|-----------------------------------------------|
D|-----------------------------------------------|
A|-----------------------------------------------|
d|-00-00-00-44-44-44-00-00-00-44-22--------------|

 chorus again (coro otra vez)

  Post-chorus:
G|----------------------------------------------------------------------------|
D|----------------------------------------------------------------------------|
A|------------------------------------------------------222222222222222222----|
d-7-5-4-2h4p2-0~-7-5-4-2h4p2-0~-7-5-4-2h4p2-0~-7-5-4-2------------------------|

  Cont:
G|----------------------------------------------------------------|
D|----------------------------------------------------------------|
A|-0000000000000000-22222222222222-000000000000000-22222222222222-|
d|----------------------------------------------------------------|

G|----------------------------------------------------------------------------|
D|----------------------------------------------------------------------------|
A|-0000000000000000-222222222222222-0-----------------------------------------|
d|----------------------------------------------------------------------------|

 chorus until end on d string in 0~
   (tocar coro hasta ke acabe la cancion en la cuerda d en 0~)

mi segunda banda favorita despues de taking back sunday: A static lullaby

 saludos a todos y arriba el emo! y mexico
Comments