A Second Guessing - Sinking In Chords & Tabs

 

Sinking In Chords & Tabs

A Second Guessing Chords & Tabs

Version: 1 Type: Tab 2 ratings
1 star 2 stars 3 stars 4 stars 5 stars
comments

Sinking In Tab

Title: Sinking In 
Artist: a second guessing
Transcribed by: Justin Abbott 
tuning: standard 


intro

e-3-3-3-3-3-3-3-3---|  |3-3---3-3---| 
b--3---3---3---3----|  |-3-----3----|  
g----0-------2------|X2|---0-----2--|X2
d--------2-------0--|  |-----2----0-|  
a-------------------|  |------------|  
E-------------------|  |------------|   

chorus

e------3-3-3-0-0-0-0-0-0-0-0-0--|
b------3-3-3-3-3-3-3-3-3-3-3-3--|
g------0-0-0-2-2-0-0-0-0-0-0-0--|X2
d--0-0-------0-0-2-2-3-3-3-3-3--|
a--0-0-----------3-3-3-3-3-3-3--|
E--3-3--------------------------|


verse
[ Tab from: http://www.guitartabs.cc/tabs/a/a_second_guessing/sinking_in_tab.html ]
e---------------|
b---------------|
g-3-3-3--3-3-3--|
d-2-2-2--0-0-0--|X4
a-2-2-2--2-2-2--|
E---------------|

chorus

e------3-3-3-0-0-0-0-0-0-0-0-0--|
b------3-3-3-3-3-3-3-3-3-3-3-3--|
g------0-0-0-2-2-0-0-0-0-0-0-0--|X2
d--0-0-------0-0-2-2-3-3-3-3-3--|
a--0-0-----------3-3-3-3-3-3-3--|
E--3-3--------------------------|


intro

e-3-3-3-3-3-3-3-3---|  |3-3---3-3---|    |--3-- 
b--3---3---3---3----|  |-3-----3----|    |--3--
g----0-------2------|X1|---0-----2--|X1  |--0--
d--------2-------0--|  |-----2----0-|    |--2--
a-------------------|  |------------|    |-----
E-------------------|  |------------|    |-----end.
Comments