A Perfect Murder - Time Bomb Chords & Tabs

 

Time Bomb Chords & Tabs

A Perfect Murder Chords & Tabs

Version: 2 Type: Tab

Time Bomb Tab

Song: Time Bomb
Band: A Perfect Murder
Tuning: Drop C (DAFCGC)
Tabber: Brandon Wall (ze_carvingheadz@yahoo.com)

|-------------------------------||--------------------------------|
|-------------------------------||--------------------------------|
|-------------------------------||--------------------------------|
|-------------------------------||--------------------------------|
|-------------------------------||--------------------------------|
|000-0-5-8-7--00-0-5-8-7-12-12^-||-000-0-5-8-7--00-0-5-8-7-3-2^---|
 ...          ..                   ...          ..

|-------------------------------||--------------------|
|-------------------------------||--------------------|
|-------------------------------||--------------------|
|-------------------------------||--------------------|
|-------------------------------||--------------------|
|000-0-5-8-7--00-0-5-8-7-12-12^-||-000-0-5-8-7--0-0---|
 ...          ..                   ...          .

|-------------------------------||--------------------------------|
|-------------------------------||--------------------------------|
|-------------------------------||--------------------------------|
|-------------------------------||--------------------------------|
|-------------------------------||--------------------------------|
|000-0-5-8-7--00-0-5-8-7-12-12^-||-000-0-5-8-7--00-0-5-8-7-3-2^---|
 ...          ..                   ...          ..

|-------------------------------||--------------------------------|
|-------------------------------||--------------------------------|
|-------------------------------||--------------------------------|
|-------------------------------||--------------------------------|
|-------------------------------||--------------------------------|
|000-0-5-8-7--00-0-5-8-7-12-12^-||-000-0-5-8-7--00-0-5-8-7-3-2^---|
 ...          ..                   ...          ..

|-------------------------||-----------------------------|
|-------------------------||-----------------------------|
|-------------------------||-----------------------------|
|-------------------------||-----------------------------|
|-------------------------||-----------------------------|
|00-0-00-0-00-0-00--8/12^-||-00-0-00-0-00-0-00--8-0000---|
 ..   ..   ..   ..           ..   ..   ..   ..    ....

|-------------------------||---------------------------------|
|-------------------------||---------------------------------|
|-------------------------||---------------------------------|
|-------------------------||---------------------------------|
|-------------------------||---------------------------0-0---|
|00-0-00-0-00-0-00--8/12^-||-00-0-00-0-00-0-00--8-0000-0-0---|
 ..   ..   ..   ..           ..   ..   ..   ..    ....

|---------------------------------------|
|---------------------------------------|
|---------------------------------------|
|---------------------------------------|
|---------------------------------------|
|0-0000-0-0000-0-0000-0-0000-88888888---|
   ....   ....   ....   .... ........

|-----------------------------------------------|
|-----------------------------------------------|
|-----------------------------------------------|
|-----------------------------------------------|
|-----------------------------------------------|
|0-0000-0-0000-0-0000-0-0000-8888-12-12-12-12---|
   ....   ....   ....   .... ....  .  .  .  .

|---------------------------------------|
|---------------------------------------|
|---------------------------------------|
|---------------------------------------|
|---------------------------------------|
|0-0000-0-0000-0-0000-0-0000-88888888---|
   ....   ....   ....   .... ........

|-----------------------------------------------|
|-----------------------------------------------|
|-----------------------------------------------|
|-----------------------------------------------|
|-----------------------------------------------|
|0-0000-0-0000-0-0000-0-0000-8888-12-12-12-12---|
   ....   ....   ....   .... ....  .  .  .  .

|------------------------------|
|------------------------------|
|------------------------------|
|------------------------------| X4
|000-0-1-4-3--00-0-1-4-3-5-4---|
|000-0-1-4-3--00-0-1-4-3-5-4---|
 ...          ..

*the bass and drums play alone for a few seconds*

|--------|
|--------|
|--------|
|--------| X2
|000--00-|
|000--00-|
 ...  ..

|---------------------------|       | ---|
|---------------------------|       |----|
|---------------------------|       |----|
|---------------------------| X4    |----| X2
|---------------------------|       |-0--|
|000-0-5-8-7--00-5-8-7-5-4--|       |-0--|
 ...          ..

**The solo is the only part of the song where the 2 guitars play a different part**

//Rythem Guitar plays\
[ Tab from: http://www.guitartabs.cc/tabs/a/a_perfect_murder/time_bomb_tab_ver_2.html ]
|---------------------------------------|
|---------------------------------------|
|---------------------------------------|
|---------------------------------------|
|---------------------------------------|
|0-0000-0-0000-0-0000-0-0000-88888888---|
   ....   ....   ....   .... ........

|-----------------------------------------------|
|-----------------------------------------------|
|-----------------------------------------------|
|-----------------------------------------------|
|-----------------------------------------------|
|0-0000-0-0000-0-0000-0-0000-8888-12-12-12-12---|
   ....   ....   ....   .... ....  .  .  .  .

|---------------------------------------|
|---------------------------------------|
|---------------------------------------|
|---------------------------------------|
|---------------------------------------|
|0-0000-0-0000-0-0000-0-0000-88888888---|
   ....   ....   ....   .... ........

|-----------------------------------------------|
|-----------------------------------------------|
|-----------------------------------------------|
|-----------------------------------------------|
|-----------------------------------------------|
|0-0000-0-0000-0-0000-0-0000-8888-12-12-12-12---|
   ....   ....   ....   .... ....  .  .  .  .

//Lead guitar plays the solo\

|--------------10------------18-16-13-16-13-12-13-12-10-8-10-12-10-|
|10^^-13-10-------10------16---------------------------------------|
|-----------12-------12--------------------------------------------|
|------------------------------------------------------------------|
|------------------------------------------------------------------|
|------------------------------------------------------------------|

|------17-----------------------------|
|---15----15-----------------15-------|
|14----------14-12^-15-14-12----14-12-|
|-------------------------------------|
|-------------------------------------|
|-------------------------------------|

(tremo pluck this part)
|---------------------------------------------------------------------|
|11-11-11-12-12-12-13-13-13-15-15-15-17-17-17-18-18-18-20-20-20-20^^--|
|---------------------------------------------------------------------|
|---------------------------------------------------------------------|
|---------------------------------------------------------------------|
|---------------------------------------------------------------------|

**When the solo ends, both guitars play the same thing again**

|-------------------------||-----------------------------|
|-------------------------||-----------------------------|
|-------------------------||-----------------------------|
|-------------------------||-----------------------------|
|-------------------------||-----------------------------|
|00-0-00-0-00-0-00--8/12^-||-00-0-00-0-00-0-00--8-0000---|
 ..   ..   ..   ..           ..   ..   ..   ..    ....

|-------------------------||------------------------|
|-------------------------||------------------------|
|-------------------------||------------------------|
|-------------------------||------------------------|
|-------------------------||------------------------|
|00-0-00-0-00-0-00--8/12^-||-00-0-00-0-00-0-12------|
 ..   ..   ..   ..           ..   ..   ..

|-------------------||--------------------------|
|-------------------||--------------------------|
|-------------------||--------------------------|
|-------------------||--------------------------|
|5--5--5--5--3--3-6-||-5--5--5---11-10-8-10-3---|
|-00-00-00-00-0-----||--00-00-00----------------|

|-------------------||------------|
|-------------------||------------|
|-------------------||------------|
|-------------------||------------|
|5--5--5--5--3--3-6-||-5--5--5----|
|-00-00-00-00-0-----||--00-00-00--|

|-------------------||--------------------------|
|-------------------||--------------------------|
|-------------------||--------------------------|
|-------------------||--------------------------|
|5--5--5--5--3--3-6-||-5--5--5---11-10-8-10-3---|
|-00-00-00-00-0-----||--00-00-00----------------|

|-------------------||--------------------|
|-------------------||--------------------|
|-------------------||--------------------|
|-------------------||--------------------|
|5--5--5--5--3--3-6-||-5--5--5---00000000-|
|-00-00-00-00-0-----||--00-00-00-00000000-|
                                 ........

|-------------------||--------------------------|
|-------------------||--------------------------|
|-------------------||--------------------------|
|-------------------||--------------------------|
|5--5--5--5--3--3-6-||-5--5--5---11-10-8-10-3---|
|-00-00-00-00-0-----||--00-00-00----------------|

|-------------------||--------------------|
|-------------------||--------------------|
|-------------------||--------------------|
|-------------------||--------------------|
|5--5--5--5--3--3-6-||-5--5--5---00000000-|
|-00-00-00-00-0-----||--00-00-00-00000000-|
                                 ........

Thats it, easy!?