A Perfect Murder - Time Bomb Chords & Tabs

 

Time Bomb Chords & Tabs

A Perfect Murder Chords & Tabs

Version: 1 Type: Tab 0 ratings
1 star 2 stars 3 stars 4 stars 5 stars
comments

Time Bomb Tab

   
A Perfect Murder is a hardcore metal band that has released one cd already
called "Unbroken" and is releasing it's newest cd "Strength Through Vengeance" coming
out 7/26/05 up. You can visit their website at www.aperfectmurdermusic.com. Some of
their hit songs are "Time Bomb", "Possesed", "Body and Blood", and "Wake up and Die."
This is a perfect band for heavy metal lovers.

Tune Drop D one whole step down (c,g,c,f,a,D)

^=vibrato
b=bend (to this note)
pm=palm mute
p=pull off

INTRO (gtr 1)  play this 2 times then gtr 2 comes in
-----------------------------------------------------------------------------|
-----------------------------------------------------------------------------|
-----------------------------------------------------------------------------|
-----------------------------------------------------------------------------|
-----------------------------------------------------------------------------|
-0-0-0---0-5-8-7---0-0---0-5-8-7-12-12---0-0-0---0-5-8-7---0-0---0-5-8-7-3-3-|


gtr 2  play this 2 times then play INTRO from gtr 1
----------------------------------------------------------------------------|
----------------------------------------------------------------------------|
----------------------------------------------------------------------------|
--0-0-0----------------0-0--------------------0-0-0--------------0-0--------|
--0-0-0----------------0-0--------------------0-0-0--------------0-0--------|
--0-0-0----------------0-0--------------------0-0-0--------------0-0--------|

VERSE (gtrs 1 and 2) play 4 times
----------------------------------------------------------------------------|
----------------------------------------------------------------------------|
----------------------------------------------------------------------------|
----------------------------------------------------------------------------|
----------------------------------------------------------------------------|
--0pm-0pm-5-0pm-5-0pm-5-0pm-5-12-12---0pm-0pm-5-0pm-5-0pm-5-0pm-5-3-3-------|

PRE-CHORUS (gtrs 1 and 2) play 4 times
----------------------------------------------------------------------------|
----------------------------------------------------------------------------|
----------------------------------------------------------------------------|
----------------------------------------------------------------------------|
----------------------------------------------------------------------------|
--0-0-5-0-5-0-5-0-5-0-0pm-0pm-0pm-0pm-0pm-0pm-0pm-0pm-----------------------|
[ Tab from: http://www.guitartabs.cc/tabs/a/a_perfect_murder/time_bomb_tab.html ]
CHORUS PART 1 (gtrs 1 and 2) play 4 times
----------------------------------------------------------------------------|
----------------------------------------------------------------------------|
----------------------------------------------------------------------------|
----------------------------------------------------------------------------|
----------------------------------------------------------------------------|
--0-0-0---0-3-4-3---0-0---0-3-4-3-4-3---------------------------------------|

CHORUS PART 2 (gtrs 1 and 2) play 2 times
----------------------------------------------------------------------------|
----------------------------------------------------------------------------|
----------------------------------------------------------------------------|
--0-0-0---0-0---------------------------------------------------------------|
--0-0-0---0-0---------------------------------------------------------------|
--0-0-0---0-0---------------------------------------------------------------|

play chorus part 1 four times

SOLO (gtr 1)the part after the / is tremolo picked

------------------------------10-----10^-15p13p12-13-12--12------------------|
10------10------10------13-10----11--------------------15--15-13-12-13-15-13-|
12b(14)-12b(14)-12b(14)------12----12----------------------------------------|
-----------------------------------------------------------------------------|
-----------------------------------------------------------------------------|
-----------------------------------------------------------------------------|

--------17----------------15--------15-12--------------10-12-13-17-15b(17)--|
13-15-17--17-15-13--13b(15)-17p15p13-----12----10-11-13---------------------|
------------------15-------------------------12-----------------------------|
----------------------------------------------------------------------------|
----------------------------------------------------------------------------|
----------------------------------------------------------------------------|
SOLO (gtr 2) just play the pre chorus over gtr 1s solo

play VERSE 4 times

ENDING (gtrs 1 and 2) just play till the songs over
----------------------------------------------------------------------------|
----------------------------------------------------------------------------|
----------------------------------------------------------------------------|
-----------------------------------6-5-3-5----------------------------------|
---5---5---5---5-3---6---5---5---5--------3---------------------------------|
--0-0-0-0-0-0-0-0-0-0-0-0-0-0-0-0-0-----------------------------------------|


If you've never heard this song before then you should download it or buy the cd cause 
a good song. It's a great song for people who love heavy metal.
Comments