A Perfect Circle - The Hollow Chords & Tabs

 

The Hollow Chords & Tabs

A Perfect Circle Chords & Tabs

Version: 4 Type: Tab 0 ratings
1 star 2 stars 3 stars 4 stars 5 stars
comments

The Hollow Tab

   
Band- A Perfect Circle
Song- The Hollow

Gtr I (C# F# B E G# C#) - 'Billy - octaves, arpeggios and leads'
Gtr II (C# F# B E G# C#) - 'Troy - rhythm'
Gtr III (C# F# B E G# C#) - 'Billy - overdub'
Gtr IV (C# F# B E G# C#) - 'Troy - clean mellow interlude guitar'
Gtr V (C# F# B E G# C#) - 'Effect'

 Intro
  Slow, Heavy Rock Q=78
  C#5         B5                     F#5        E5
 3/4
  Gtr I
   E.    S  S  S  E.   E   S    S  S  E  E  E    E  E
|----------------------------|--------------------------|
|----------------------------|--------------------------|
|-13----13-13-13-13--/16--16-|-16-16-16-16-16---16-16---|
|--x-----x--x--x--x----x---x-|--x--x--x--x--x----x--x---|
|-11----11-11-11-11--/14--14-|-14-14-14-14-14---14-14---|
|----------------------------|--------------------------|
|
| Gtr II
|                               PM|         PM|
|  E  S  S  S  S  E.   E.       S  S  E  E  S S  E  S S
|----------------------------|--------------------------|
|----------------------------|--------------------------|
|----------------------------|--------------------------|
|-11--x-11-11s=9--9----9\----|--x--x--4--4--x-x--2------|
|-11--x-11-11s=9--9----9\----|--x--x--4--4--x-x--2------|
|--9--x--9--9s=7--7----7\----|--x--x--2--2--x-x--0--2p0-|


  F#5C#5        B5                E5        B5
   S  E    S  S  S  E.  E.    E    E  E E   E S  S
|--------------------------|------------------------|
|--------------------------|------------------------|
|-11s13---13-13-13-13--13--|-13---13-13-9---9-9s13--|
|--x--x----x--x--x--x---x--|--x----x--x-x---x-x--x--|
|--9s11---11-11-11-11--11--|-11---11-11-7---7-7s11--|
|--------------------------|------------------------|
|
|                             PM|       PM|
|  S  S S  S  S  S  E.  E.    S S  E  E S S E E
|--------------------------|------------------------|
|--------------------------|------------------------|
|--------------------------|------------------------|
|--4s11---11-11--9--9---9\-|--x-x--2--2-x-x-9-9-----|
|--4s11---11-11--9--9---9\-|--x-x--2--2-x-x-9-9-----|
|--2s=9----9--9--7--7---7\-|--x-x--0--0-x-x-7-7-----|


  B5 C#5        B5                         F#5
  Gtr I
   E.      S  S  S  S  S  S  E   S    S  S  E  S  S  E  E   E
|----------------------------------|----------------------------|
|----------------------------------|----------------------------|
|-13------13-13-13-13s16-16-16--16-|-16-16-16-16s18-18-16---9---|
|--x-------x--x--x--x--x--x--x---x-|--x--x--x--x--x--x--x---x---|
|-11------11-11-11-11s14-14-14--14-|-14-14-14-14s16-16-14---7---|
|----------------------------------|----------------------------|
|
| Gtr II
|       PM                            PM|
|  S  S S  S  S  S  E.       E.       S  S  E  E     E  S S S S
|----------------------------------|----------------------------|
|----------------------------------|----------------------------|
|----------------------------------|----------------------------|
|--9s11-x-11-11s=9--9--------9\----|--x--x--4--4-----4------4---|
|--9s11-x-11-11s=9--9--------9\----|--x--x--4--4-----4------4---|
|--7s=9-x--9--9s=7--7--------7\----|--x--x--2--2-----2--0-0-2p0-|


  F#5C#5        B5                  E5        B5
   E.      S  S  S  E.  E.    +E     E  Q      E  E
|--------------------------|-------------------------|
|--------------------------|-------------------------|
|-13------13-13-13-13--13--|-(13)---13-13-----13-13--|
|--x-------x--x--x--x---x--|--(x)----x--x------x--x--|
|-11------11-11-11-11--11--|-(11)---11-11-----11-11--|
|--------------------------|-------------------------|
|
|                              PM-|       PM|
|  S  S S  S  S  S  E.  E.     S  S  E  E S S  E  E
|--------------------------|-------------------------|
|--------------------------|-------------------------|
|--------------------------|-------------------------|
|--4s11---11-11s=9--9---9\-|---x--x--2--2-x-x--9--9--|
|--4s11---11-11s=9--9---9\-|---x--x--2--2-x-x--9--9--|
|--2s=9----9--9s=7--7---7\-|---x--x--0--0-x-x--7--7--|


 1st Verse
  B5  C#5
  Gtr I
   +H.                                  H.                                5x
|-----------------------------------||------------------------------------||
|-----------------------------------||o----------------------------------o||
|-(13)------------------------------||------------------------------------||
|--(x)------------------------------||------------------------------------||
|-(11)------------------------------||o----------------------------------o||
|-----------------------------------||------------------------------------||
|
| Gtr II
|   S  S  E    H                        H.                                5x
|-----------------------------------||------------------------------------||
|-----------------------------------||o----------------------------------o||
|-----------------------------------||------------------------------------||
|---9s11----------------------------||------------------------------------||
|---9s11----------------------------||o----------------------------------o||
|---7s=9----------------------------||------------------------------------||
|
| Gtrs I, V
|   PM---|                     PM-------------|                     PM|
|   S  S  S S  S  S  S S  S  S S  S     S   S  S S  S  S  S S  S  S S  S  5x
|----------------14-----------------||----------------14------------------||
|-------------12----12--------------||o------------12----12--------------o||
|-----------9----------9------------||-----------9----------9-------------||
|--------13--------------13---------||--------13--------------13----------||
|-----11--------------------11---11-||o----11--------------------11---11-o||
|---9--------------------------9----||--9---------------------------9-----||


                                                            B5
  Gtr I
  Q           S  S  S  S  E    E      Q          S  S  S  S  E    E
|------------------19---------------|-----------------19---------------|
|---------------19----19------------|--------------19----19------------|
|------------16----------16---------|-----------16----------16---------|
|-----------------------------------|----------------------------------|
|-----------------------------------|----------------------------------|
|-----------------------------------|----------------------------------|
|
| Gtr II
| H.                                  H                      E    E
|-----------------------------------|----------------------------------|
|-----------------------------------|----------------------------------|
|-----------------------------------|----------------------------------|
|-----------------------------------|------------------------9----9----|
|-----------------------------------|------------------------9----9----|
|-----------------------------------|------------------------7----7----|
|
| PM----|                      PM----------|                      PM|
| S   S  S S  S  S  S  S  S  S S  S   S  S  S S  S  S  S  S  S  S S  S
|---------------14------------------|--------------14------------------|
|------------12----12---------------|-----------12----12---------------|
|----------9-----------9------------|---------9-----------9------------|
|-------13---------------13---------|------13---------------13---------|
|----11---------------------11---11-|---11---------------------11---11-|
|-9----------------------------9----|-9---------------------------9----|


 1st Chorus
  A5                G#5                  E5
  Gtr I
   S  S  S  S  S  S  S   S  S  S  S  S    S  E  E.    E.  E.
|-16-19-16-----------------------------|---------------------|
|----------16-17-16--------------------|---------------------|
|-------------------16-----------------|---------------------|
|-----------------------18-------------|-------------16--18--|
|--------------------------19-19-18-18-|-18-18-19------------|
|--------------------------------------|---------------------|
|
| Gtr II
|  E     S  E     S  E.        S  S  S    Q        E  E.  E.
|--------------------------------------|---------------------|
|--------------------------------------|---------------------|
|--------------------------------------|---------------------|
|--7--------7-----7--6---------6--6--6-|--2------------------|
|--7--------7-----7--6---------6--6--6-|--2--------7--7--\2--|
|--5--------5-----5--4---------4--4--4-|--0------------------|


  F#5 A5       G#5       E5              B5     E5
    E.     E    S  E.  E  S    S  S  E    E  E.  E.
|---------------------------|-----------------------|
|---------------------------|-----------------------|
|---------13---13-13--------|------------16-16--14--|
|-\11-------------11--11-11-|-11s14-14--------------|
|---------------------------|-----------------------|
|---------------------------|-----------------------|
|
|                                    PM|
|   S S S  S S  S  E.  E  S    S  S  S S  E  E.  E.
|---------------------------|-----------------------|
|---------------------------|-----------------------|
|---------------------------|-----------------------|
|---4s7----7-7--6--6---6--2-|--2--2--x-x--9--9\--2--|
|---4s7----7-7--6--6---6--2-|--2--2--x-x--9--9\--2--|
|---2s5----5-5--4--4---4--0-|--0--0--x-x--7--7\--0--|


  A5          G#5           E5
  Gtr I
   E.    E  S  Q     S  S    S  S  E  E  E   E      S  S
|-------------------------|------------------------------|
|-------------------------|------------------------------|
|-13----------13----------|----------16-16--16-----16s18-|
|-------11-11-11----11-11-|-11s14-14---------------------|
|-------------------------|------------------------------|
|-------------------------|------------------------------|
|
| Gtr II
|  E  S  E  S  E. S  S  S    Q        E  E.     E.
|-------------------------|------------------------------|
|-------------------------|------------------------------|
|-------------------------|------------------------------|
|--7-----7--7--6--6--6--6-|--2---------------------------|
|--7-----7--7--6--6--6--6-|--2--------7--7-----\2--------|
|--5-----5--5--4--4--4--4-|--0---------------------------|


  F#5A5         G#5                 B5
   S  S  S  E    S  E.  E    S    S  S   E  E  E.  E.
|------------------------------|-----------------------|
|------------------------------|-----------------------|
|----------13---13-13----------|-----------------------|
|-11-11-11-------------11---11-|-11s13--13-13-13--13---|
|------------------------------|-----------------------|
|------------------------------|-----------------------|
|
|  S  S  S  S S  Q      S E       S  E.     E  E.  E.
|------------------------------|-----------------------|
|------------------------------|-----------------------|
|------------------------------|-----------------------|
|--4s=7-----7-7--6------6-6----|--6s=9------9--9---9---|
|--4s=7-----7-7--6------6-6----|--6s=9------9--9---9---|
|--2s=5-----5-5--4------4-4----|--4s=7------7--7---7---|


 2nd Verse
  C#5            B5                     F#5             E5
  Gtr I
   PM---|                     ~~~  PM---|                   ~~~
   S  S  S  S  S  S  S  S  S  E.   S  S  S S  S  S  S S  S  E.
|----------------14--------------|--------------14-----------------|
|-------------12----12-----------|-----------12----12--------------|
|-----------9-----------9--------|---------9----------9------------|
|-------13----------------13-----|------13--------------13---------|
|----11----------------------11--|---11--------------------11------|
|--9-----------------------------|-9-------------------------------|
|
|        PM                        PM|              PM|
|  E     S  S  S  S  E.       E.   S  S  E    E     S S  E     S S
|--------------------------------|---------------------------------|
|--------------------------------|---------------------------------|
|--------------------------------|---------------------------------|
|-11-----x-11-11s=9--9--------9\-|-x--x--4----4-----x-x--2---------|
|-11-----x-11-11s=9--9--------9\-|-x--x--4----4-----x-x--2---------|
|--9-----x--9--9s=7--7--------7\-|-x--x--2----2-----x-x--0-----2p0-|


  F#C#5         B5                     E5              B5
  PM---|                     ~~~  PM---|                   ~~~
  S  S  S  S  S  S  S  S  S  E.   S  S  S S  S  S  S S  S  E.
|---------------14--------------|--------------14----------------|
|------------12----12-----------|-----------12----12-------------|
|----------9-----------9--------|---------9----------9-----------|
|------13----------------13-----|------13--------------13--------|
|---11----------------------11--|---11--------------------11-----|
|-9-----------------------------|-9------------------------------|
|
|                                 PM|              PM|
| S  S  S  S  S  S  E.       E.   S  S  E    E     S S  E     E
|-------------------------------|--------------------------------|
|-------------------------------|--------------------------------|
|-------------------------------|--------------------------------|
|-4s11----11-11s=9--9--------9\-|-x--x--2----2-----x-x--9-----9--|
|-4s11----11-11s=9--9--------9\-|-x--x--2----2-----x-x--9-----9--|
|-2s=9-----9--9s=7--7--------7\-|-x--x--0----0-----x-x--7-----7--|


  B5C#5         B5                     F#5
  Gtr I
  PM---|                     ~~~  PM---|                   ~~~
  S  S  S  S  S  S  S  S  S  E.   S  S  S S  S  S  S S  S  E.
|---------------14--------------|--------------14-----------------|
|------------12----12-----------|-----------12----12--------------|
|----------9-----------9--------|---------9----------9------------|
|------13----------------13-----|------13--------------13---------|
|---11----------------------11--|---11--------------------11------|
|-9-----------------------------|-9-------------------------------|
|
|       PM                        PM|
| S  S  S  S  S  S  E.       E.   S  S  E    E     E    S  S  S S
|-------------------------------|---------------------------------|
|-------------------------------|---------------------------------|
|-------------------------------|---------------------------------|
|-9-11--x-11-11s=9--9--------9\-|-x--x--4----4-----4----------4---|
|-9-11--x-11-11s=9--9--------9\-|-x--x--4----4-----4----------4---|
|-7--9--x--9--9s=7--7--------7\-|-x--x--2----2-----2----0--0--2p0-|


    C#5         B5                     E5              B5
  PM---|                     ~~~  PM---|                   ~~~
  S  S  S  S  S  S  S  S  S  E.   S  S  S S  S  S  S S  S  E.
|---------------14--------------|--------------14----------------|
|------------12----12-----------|-----------12----12-------------|
|----------9-----------9--------|---------9----------9-----------|
|------13----------------13-----|------13--------------13--------|
|---11----------------------11--|---11--------------------11-----|
|-9-----------------------------|-9------------------------------|
|
|                                 PM|              PM|
| S  S  S  S  S  S  E.       E.   S  S  E    E     S S  E     E
|-------------------------------|--------------------------------|
|-------------------------------|--------------------------------|
|-------------------------------|--------------------------------|
|-4s11----11-11s=9--9--------9\-|-x--x--2----2-----x-x--9-----9--|
|-4s11----11-11s=9--9--------9\-|-x--x--2----2-----x-x--9-----9--|
|-2s=9-----9--9s=7--7--------7\-|-x--x--0----0-----x-x--7-----7--|

[ Tab from: http://www.guitartabs.cc/tabs/a/a_perfect_circle/the_hollow_tab_ver_4.html ]
 Interlude
  E5
  Gtr I
  H.                  H.                 H.                 H          E E
|------------------|------------------|------------------|-------------7-7--|
|------------------|------------------|------------------|-------------x-x--|
|------------------|------------------|------------------|-------------4-4--|
|------------------|------------------|------------------|------------------|
|------------------|------------------|------------------|------------------|
|------------------|------------------|------------------|------------------|
|
| Gtr II
| H.                 +H.                +H.                +H.
|------------------|------------------|------------------|------------------|
|------------------|------------------|------------------|------------------|
|------------------|------------------|------------------|------------------|
|-2----------------|-(2)--------------|-(2)--------------|-(2)--------------|
|-2----------------|-(2)--------------|-(2)--------------|-(2)--------------|
|-0----------------|-(0)--------------|-(0)--------------|-(0)--------------|
|
| Gtr IV
| E. S S S S.S. E.    S.S. E S E. S E    E. S S S  E E E    S  S E E E E E
|------------------|------------------|------------------|------------------|
|------------------|------------------|------------------|------------------|
|------------------|------------------|-----------/8-8-8-|--8\---3-3-3------|
|-6--6---x-6s8--8--|--8s6--6-x-6--6-x-|--6--6---x-/9-9-9-|--9\---4-4-4-6-6--|
|-7--7---x-7s9--9--|--9s7--7-x-7--7-x-|--7--7---x--x-x-x-|--x----x-x-x-7-7--|
|------------------|------------------|-----------/7-7-7-|--7\---2-2-2------|


  Gtr I
  E  S S S S S S    E    E   S  S     E    E    E   S  S  S  S
|-7--7-7-7-7-7s9----9----9-|-9s11----11---11---11--11-11-11-11-|
|-x--x-x-x-x-xsx----x----x-|-xs=x-----x----x----x---x--x--x--x-|
|-4--4-4-4-4-4s6----6----6-|-6s=8-----8----8----8---8--8--8--8-|
|--------------------------|-----------------------------------|
|--------------------------|-----------------------------------|
|--------------------------|-----------------------------------|
|
| Gtr IV
| E.   S S S S.  S.   E.     S.   S.    E    S  E.     S  E
|--------------------------|-----------------------------------|
|--------------------------|-----------------------------------|
|--------------------------|-----------------------------------|
|-6----6---x-6s==8----8----|-8s===6-----6----x--6------6--x----|
|-7----7---x-7s==9----9----|-9s===7-----7----x--7------7--x----|
|--------------------------|-----------------------------------|


   S  S  S  S  S  S  S  S  S  S  S  S    S   S E S S S  S E E
|-11s14-14-14-14-14-14-14-14-14-14-14-|-14s=16-9-9-9-9s11-7-7-|
|--xs=x--x--x--x--x--x--x--x--x--x--x-|--x---x-x-x-x-x--x-x-x-|
|--8s11-11-11-11-11-11-11-11-11-11-11-|-11s=13-6-6-6-6s=8-4-4-|
|-------------------------------------|-----------------------|
|-------------------------------------|-----------------------|
|-------------------------------------|-----------------------|
|
|  E.       S  S  S  E     E     E       S   S E E   E    E E
|-------------------------------------|-----------------------|
|-------------------------------------|-----------------------|
|-------------------/8-----8-----8----|--8\----3-3---3--------|
|--6--------6-----x-/9-----9-----9----|--9\----4-4---4----6-6-|
|--7--------7-----x--x-----x-----x----|--x-----x-x---x----7-7-|
|-------------------/7-----7-----7----|--7\----2-2---2--------|


 Bridge
  Gtr I
  E S E S E S E S   S E  E.  E E E   S S S E S E S E S   E S E S E E E
|-----------------|------------0-0-|-------------------|-----------0-0-|
|-----------------|------------0-0-|-------------------|-----------0-0-|
|-----8-------6---|-----13--11-1-1-|-------8-------6---|-----------1-1-|
|---6-------4-----|-----11---9-2-2-|-----6-------4-----|-----6-----2-2-|
|-4-------2-------|-7s9--------2-2-|-2s4-------2-------|---4-------2-2-|
|-------0-------0-|------------0-0-|---------0-------0-|-2-----0-0-0-0-|
|
| Gtrs II, III
| E S E S E S E S   S E  E.  E E E   S S S E S E S E S   E S E S E E E
|-----------------|----------------|-------------------|---------------|
|-----------------|----------------|-------------------|---------------|
|-----8-------6---|------------4-4-|-------8-------6---|-----------4-4-|
|---6-------4-----|------------2-2-|-----6-------4-----|-----6-----2-2-|
|-4-------2-------|-2-4--4---2-2-2-|-2s4-------2-------|---4-------2-2-|
|-------0-------0-|-2-2--2---0-0-0-|---------0-------0-|-2-----0-0-0-0-|


  Gtr I
  S S S E S E S E S   E S E S E E E   S S S E S E S E S   E S E S E E E
|-------------------|-----------0-0-|-------------------|-----------0-0-|
|-------------------|-----------0-0-|-------------------|-----------0-0-|
|-------8-------6---|-----------1-1-|-------8-------6---|-----------1-1-|
|-----6-------4-----|-----6-----2-2-|-----6-------4-----|-----6-----2-2-|
|-2s4-------2-------|---4-------2-2-|-2s4-------2-------|---4-------2-2-|
|---------0-------0-|-2-----0-0-0-0-|---------0-------0-|-2-----0-0-0-0-|
|
| Gtrs II, III
| S S S E S E S E S   E S E S E E E   S S S E S E S E S   E S E S E E E
|-------------------|---------------|-------------------|---------------|
|-------------------|---------------|-------------------|---------------|
|-------8-------6---|-----------4-4-|-------8-------6---|-----------4-4-|
|-----6-------4-----|-----6-----2-2-|-----6-------4-----|-----6-----2-2-|
|-2s4-------2-------|---4-------2-2-|-2s4-------2-------|---4-------2-2-|
|---------0-------0-|-2-----0-0-0-0-|---------0-------0-|-2-----0-0-0-0-|


 Interlude
  C#5           Eb5           E5         A5
  Gtrs I, II
  PM-------------------------------------|
  S S  S  S S S S S S S S S   S  S S S S S E E E
|---------------------------|--------------------|
|---------------------------|--------------------|
|---------------------------|--------------------|
|-6-6--6--6-6-6-8-8-8-8-8-8-|-9--9-9-9-9-2-2-2-2-|
|-4-4--4--4-4-4-6-6-6-6-6-6-|-7--7-7-7-7-0-0-0-0-|
|---------------------------|--------------------|
|
| Gtr III
| E   +H                E     H.
|---------------------------|--------------------|
|---------------------------|--------------------|
|-4---(4)-------------------|--------------------|
|-2---(2)-------------------|--------------------|
|-2---(2)-------------------|--------------------|
|---------------------------|--------------------|


  C#5          Eb5           E5        A5
  PM-----------------------------------|
  S  S S S S S S S S S S S   S S S S S  S  E     E     E
|--------------------------|---------------------------------|
|--------------------------|---------------------------------|
|--------------------------|---------------------------------|
|-6--6-6-6-6-6-8-8-8-8-8-8-|-9-9-9-9-9--2--2-----2-----2-----|
|-4--4-4-4-4-4-6-6-6-6-6-6-|-7-7-7-7-7--0--0-----0-----0-----|
|--------------------------|---------------------------------|
|
| H.                         Q       S  S  S  S  S  S  S S
|--------------------------|---------------------------------|
|--------------------------|-----------14-14-14-14s12-12s7---|
|--------------------------|------------x--x--x--x--x--x-x---|
|--------------------------|-----------11-11-11-11s=9--9s4---|
|--------------------------|---------------------------------|
|--------------------------|---------------------------------|


  C#5         Eb5           E5        A5
  Gtrs I, II
  PM----------------------------------|
  S S S S S S S S S S S S   S S S S S S E E E
|-------------------------|-------------------|
|-------------------------|-------------------|
|-------------------------|-------------------|
|-6-6-6-6-6-6-8-8-8-8-8-8-|-9-9-9-9-9-2-2-2-2-|
|-4-4-4-4-4-4-6-6-6-6-6-6-|-7-7-7-7-7-0-0-0-0-|
|-------------------------|-------------------|
|
| Gtr III
| E   S S S S S S S S S S   S S S S S S E E E
|-------------------------|-------------------|
|-7---7-7-7-7-9-9-9-9-9-5-|-5-5-5-5-5s7-4-4-4-|
|-x---x-x-x-x-x-x-x-x-x-x-|-x-x-x-x-xsx-x-x-x-|
|-4---4-4-4-4-6-6-6-6-6-2-|-2-2-2-2-2s4-1-1-1-|
|-------------------------|-------------------|
|-------------------------|-------------------|


  C#5         Eb5           E5
  PM---------------------------------|
  S S S S S S S S S S S S   S  S S S E  Q.
|-------------------------|------------------|
|-------------------------|------------------|
|-------------------------|------------------|
|-6-6-6-6-6-6-8-8-8-8-8-8-|-9--9-9-9-9\------|
|-4-4-4-4-4-4-6-6-6-6-6-6-|-7--7-7-7-7\------|
|-------------------------|------------------|
|
| E   E   H                 H.
|-------------------------|------------------|
|-------------------------|------------------|
|-6-----------------------|------------------|
|-x-----------------------|------------------|
|-4-----------------------|------------------|
|-------------------------|------------------|


 2nd Chorus
  A5                G#5                  E5
  Gtr I
   S  S  S  S  S  S  S   S  S  S  S  S    S  E  E.    E.  E.
|-16-19-16-----------------------------|---------------------|
|----------16-17-16--------------------|---------------------|
|-------------------16-----------------|---------------------|
|-----------------------18-------------|-------------16--18--|
|--------------------------19-19-18-18-|-18-18-19------------|
|--------------------------------------|---------------------|
|
| Gtr II
|  E     S  E     S  E.        S  S  S    Q        E  E.  E.
|--------------------------------------|---------------------|
|--------------------------------------|---------------------|
|--------------------------------------|---------------------|
|--7--------7-----7--6---------6--6--6-|--2------------------|
|--7--------7-----7--6---------6--6--6-|--2--------7--7--\2--|
|--5--------5-----5--4---------4--4--4-|--0------------------|


  F#5 A5       G#5       E5              B5     E5
    E.     E    S  E.  E  S    S  S  E    E  E.  E.
|---------------------------|-----------------------|
|---------------------------|-----------------------|
|---------13---13-13--------|------------16-16--14--|
|-\11-------------11--11-11-|-11s14-14--------------|
|---------------------------|-----------------------|
|---------------------------|-----------------------|
|
|                                    PM|
|   S S S  S S  S  E.  E  S    S  S  S S  E  E.  E.
|---------------------------|-----------------------|
|---------------------------|-----------------------|
|---------------------------|-----------------------|
|---4s7----7-7--6--6---6--2-|--2--2--x-x--9--9\--2--|
|---4s7----7-7--6--6---6--2-|--2--2--x-x--9--9\--2--|
|---2s5----5-5--4--4---4--0-|--0--0--x-x--7--7\--0--|


  A5          G#5           E5
  Gtr I
   E.    E  S  Q     S  S    S  S  E  E  E   E      S  S
|-------------------------|------------------------------|
|-------------------------|------------------------------|
|-13----------13----------|----------16-16--16-----16s18-|
|-------11-11-11----11-11-|-11s14-14---------------------|
|-------------------------|------------------------------|
|-------------------------|------------------------------|
|
| Gtr II
|  E  S  E  S  E. S  S  S    Q        E  E.     E.
|-------------------------|------------------------------|
|-------------------------|------------------------------|
|-------------------------|------------------------------|
|--7-----7--7--6--6--6--6-|--2---------------------------|
|--7-----7--7--6--6--6--6-|--2--------7--7-----\2--------|
|--5-----5--5--4--4--4--4-|--0---------------------------|


  F#5A5         G#5                 B5
   S  S  S  E    S  E.  E    S    S  S   E  E  E.  E.
|------------------------------|-----------------------|
|------------------------------|-----------------------|
|----------13---13-13----------|-----------------------|
|-11-11-11-------------11---11-|-11s13--13-13-13--13---|
|------------------------------|-----------------------|
|------------------------------|-----------------------|
|
|  S  S  S  S S  Q      S E       S  E.     E  E.  E.
|------------------------------|-----------------------|
|------------------------------|-----------------------|
|------------------------------|-----------------------|
|--4s=7-----7-7--6------6-6----|--6s=9------9--9---9---|
|--4s=7-----7-7--6------6-6----|--6s=9------9--9---9---|
|--2s=5-----5-5--4------4-4----|--4s=7------7--7---7---|


 Out-Chorus
  A5                G#5                  E5
  Gtr I
   S  S  S  S  S  S  S   S  S  S  S  S    S  E  E.    E.  E.
|-16-19-16-----------------------------|---------------------|
|----------16-17-16--------------------|---------------------|
|-------------------16-----------------|---------------------|
|-----------------------18-------------|-------------16--18--|
|--------------------------19-19-18-18-|-18-18-19------------|
|--------------------------------------|---------------------|
|
| Gtr II
|  E     S  E     S  E.        S  S  S    Q        E  E.  E.
|--------------------------------------|---------------------|
|--------------------------------------|---------------------|
|--------------------------------------|---------------------|
|--7--------7-----7--6---------6--6--6-|--2------------------|
|--7--------7-----7--6---------6--6--6-|--2--------7--7--\2--|
|--5--------5-----5--4---------4--4--4-|--0------------------|


  F#5 A5       G#5       E5              B5     E5
    E.     E    S  E.  E  S    S  S  E    E  E.  E.
|---------------------------|-----------------------|
|---------------------------|-----------------------|
|---------13---13-13--------|------------16-16--14--|
|-\11-------------11--11-11-|-11s14-14--------------|
|---------------------------|-----------------------|
|---------------------------|-----------------------|
|
|                                    PM|
|   S S S  S S  S  E.  E  S    S  S  S S  E  E.  E.
|---------------------------|-----------------------|
|---------------------------|-----------------------|
|---------------------------|-----------------------|
|---4s7----7-7--6--6---6--2-|--2--2--x-x--9--9\--2--|
|---4s7----7-7--6--6---6--2-|--2--2--x-x--9--9\--2--|
|---2s5----5-5--4--4---4--0-|--0--0--x-x--7--7\--0--|


  A5          G#5           E5
  Gtr I
   E.    E  S  Q     S  S    S  S  E  E  E   E      S  S
|-------------------------|------------------------------|
|-------------------------|------------------------------|
|-13----------13----------|----------16-16--16-----16s18-|
|-------11-11-11----11-11-|-11s14-14---------------------|
|-------------------------|------------------------------|
|-------------------------|------------------------------|
|
| Gtr II
|  E  S  E  S  E. S  S  S    Q        E  E.     E.
|-------------------------|------------------------------|
|-------------------------|------------------------------|
|-------------------------|------------------------------|
|--7-----7--7--6--6--6--6-|--2---------------------------|
|--7-----7--7--6--6--6--6-|--2--------7--7-----\2--------|
|--5-----5--5--4--4--4--4-|--0---------------------------|


  F#5A5                G#5          B5
   S  S  S  E    S  E.  E    S    S  S  E  E  Q.
|------------------------------|-------------------|
|------------------------------|-------------------|
|----------13---13-13----------|-------------------|
|-11-11-11-------------11---11-|-11s13-13-13-13----|
|------------------------------|-------------------|
|------------------------------|-------------------|
|
|  S  S  S  S S  Q      S E       S  S  E  E  Q.
|------------------------------|-------------------|
|------------------------------|-------------------|
|------------------------------|-------------------|
|--4s=7-----7-7--6------6-6----|--6s=9--9--9--9----|
|--4s=7-----7-7--6------6-6----|--6s=9--9--9--9----|
|--2s=5-----5-5--4------4-4----|--4s=7--7--7--7----|


  Gtr I
   +H.         +H.         +H.
|-----------|-----------|---------*|
|-----------|-----------|---------*|
|-----------|-----------|---------*|
|-(13)------|-(13)------|-(13)----*|
|-----------|-----------|---------*|
|-----------|-----------|---------*|
|
| Gtr II
|  +H.         +H.         +H.
|-----------|-----------|---------*|
|-----------|-----------|---------*|
|-----------|-----------|---------*|
|--(9)------|--(9)------|--(9)----*|
|--(9)------|--(9)------|--(9)----*|
|--(7)------|--(7)------|--(7)----*|


Duration Legend
---------------
W - whole; H - half; Q - quarter; E - 8th; S - 16th; T - 32nd; X - 64th; a - acciaccatura
+ - note tied to previous; . - note dotted; .. - note double dotted
Uncapitalized letters represent notes that are staccato (1/2 duration)
Irregular groupings are notated above the duration line
Duration letters will always appear directly above the note/fret number it represents the
duration for.  Duration letters with no fret number below them represent rests.  Multi-
bar rests are notated in the form Wxn, where n is the number of bars to rest for.  Low
melody durations appear below the staff

Tablature Legend
----------------
 h   - hammer-on
 p   - pull-off
 b   - bend
 pb  - pre-bend
 r   - bend release (if no number after the r, then release immediately)
 /\  - slide into or out of (from/to "nowhere")
 s   - legato slide
 S   - shift slide
  - natural harmonic
[n]  - artificial harmonic
n(n) - tapped harmonic
 ~   - vibrato
 tr  - trill
 T   - tap
 TP  - trem. picking
 PM  - palm muting
\n/  - tremolo bar dip; n = amount to dip
 \n  - tremolo bar down
 n/  - tremolo bar up
/n\  - tremolo bar inverted dip
 =   - hold bend; also acts as connecting device for hammers/pulls
 <>  - volume swell (louder/softer)
 x   - on rhythm slash represents muted slash
 o   - on rhythm slash represents single note slash

Misc Legend
-----------
 |  - bar
||  - double bar
||o - repeat start
o|| - repeat end
*|  - double bar (ending)
 :  - bar (freetime)
 $  - Segno
 &  - Coda
Tempo markers -  = BPM(8/16=s8/s16), where s8 = swing 8ths, s16 = swing 16ths


***************************************************************************************
* Generated using Power Tab Editor by Brad Larsen - http://powertab.guitarnetwork.org *
***************************************************************************************
Comments