A Perfect Circle - The Hollow Chords & Tabs

 

The Hollow Chords & Tabs

A Perfect Circle Chords & Tabs

Version: 1 Type: Bass Tab 0 ratings
1 star 2 stars 3 stars 4 stars 5 stars
comments

The Hollow Bass Tab

   
Tuning, C#,F#,B,E

(Intro)
E-------------------------------------------------|
B-------------------------------------------------|
F#------------------------------------------------|
C#-7/9-99-0--7-7/---00-2-2-00-2p0-2p0-------------|

E-------------------------------------------------|
B-------------------------------------------------|
F#------------------------------------------------|
C#-2/9-99-0--7-7/---00-2-2-00-7-7-----------------|

E-------------------------------------------------|
B-------------------------------------------------|
F#------------------------------------------------|
C#-7/9-99-0--7-7/---00-2-2-2-00-2p0---------------|

E-------------------------------------------------|
B-------------------------------------------------|
F#------------------------------------------------|
C#-2/9-99-0--7-7/---00-2-2/7-7--------------------|

(Verse 1)
E-------|
B-------|
G#------|
C#?0~---|

(Chorus)
E------|
B------|
G#-----|
C#-9-9-|

E-----------------------------|
B-----------------------------|
G#----------------------------|
C#-5--5-5-4--4-4-0-0-0-0------|

E-----------------------------|
B-----------------------------|
G#----------------------------|
C#-2/5-55-44--4--0-02/7-7\0---|

E-----------------------------|
B-----------------------------|
G#----------------------------|
C#-2/5-55-44--4--0-0-0-0------|

E-----------------------------|
B-----------------------------|
G#----------------------------|
C#-2/5-55-44--4--0-02/7-7-7-7-|

Verse 2
E-------------------------------------------------|
B-------------------------------------------------|
F#------------------------------------------------|
C#-9-99-0--7-7/---00-2-2-00-2p0-2p0---------------|

E-------------------------------------------------|
B-------------------------------------------------|
F#------------------------------------------------|
C#-2/9-99-0--7-7/---00-2-2-00-7-7-----------------|

E-------------------------------------------------|
B-------------------------------------------------|
F#------------------------------------------------|
C#-7/9-99-0--7-7/---00-2-2-2-00-2p0---------------|

E-------------------------------------------------|
B-------------------------------------------------|
F#------------------------------------------------|
C#-2/9-99-0--7-7/---00-2-2/7-7--------------------|

Bridge
E-4-4-4-4/6-6-6-6\4-4-4-4--4-4-4--4-4-4/11-11-11\6-6-6\-|
B-2-2-2-2/4-4-4-4\2-2-2-2--2-2-2--2-2-2/9--9--9-\4-4-4\-|
G#------------------------------------------------------|
C#------------------------------------------------------|
[ Tab from: http://www.guitartabs.cc/tabs/a/a_perfect_circle/the_hollow_btab.html ]
E-4-4-4-4/6-6-6-6\4-4-4-4--4-4-4--4-4-4/11-11-11\6-6-6--|
B-2-2-2-2/4-4-4-4\2-2-2-2--2-2-2--2-2-2/9--9--9-\4-4-4--|
G#------------------------------------------------------|
C#------------------------------------------------------|

E-----------------------------|
B-----------------------------|
F#----------------------------|
C#-9-9--7-7--2-2--0-0-0-------|

E-----------------------------|
B-----------------------------|
F#----------------------------|
C#-9-9--7-7--2-2--0-0-0-------|

E-----------------------------|
B-----------------------------|
F#----------------------------|
C#-9-9--7-7--2-2--0-0-0-------|

E-----------------------------|
B-----------------------------|
F#----------------------------|
C#-9-9--7-7--2-2--0-0-0-------|

Interlude
E-------------------------------------------------------|
B-------------------------------------------------------|
F#-444444-666666-777777---------------------------------|
C#------------------------5--5--5-----------------------|

E-------------------------------------------------------|
B-------------------------------------------------------|
F#-444444-666666-777777---------------------------------|
C#------------------------5--5--5-----------------------|

E-------------------------------------------------------|
B-------------------------------------------------------|
F#-444444-666666-777777---------------------------------|
C#------------------------5--5--5-----------------------|

E-------------------------------------------------------|
B-------------------------------------------------------|
F#-444444-666666-77777~---------------------------------|
C#------------------------------------------------------|

Chorus
E-----------------------------|
B-----------------------------|
G#----------------------------|
C#-5--5-5-4--4-4-0-0-0-0------|

E-----------------------------|
B-----------------------------|
G#----------------------------|
C#-2/5-55-44--4--0-02/7-7\0---|

E-----------------------------|
B-----------------------------|
G#----------------------------|
C#-2/5-55-44--4--0-0-0-0------|

E-----------------------------|
B-----------------------------|
G#----------------------------|
C#-2/5-55-44--4--0-02/7-7-7-7-|

E-----------------------------|
B-----------------------------|
G#----------------------------|
C#-2/5-55-44--4--0-0-0-0------|

E-----------------------------|
B-----------------------------|
G#----------------------------|
C#-2/5-55-44--4--0-02/7-7\0---|

E-----------------------------|
B-----------------------------|
G#----------------------------|
C#-2/5-55-44--4--0-0-0-0------|

E-----------------------------|
B-----------------------------|
G#----------------------------|
C#-2/5-55-44--4--0-2/7-7-7-7--|

Thanks, please rate it after you learn it.
Comments