A Perfect Circle - Sleeping Beauty Chords & Tabs

 

Sleeping Beauty Chords & Tabs

A Perfect Circle Chords & Tabs

Version: 3 Type: Tab 0 ratings
1 star 2 stars 3 stars 4 stars 5 stars
comments

Sleeping Beauty Tab

   
Band- A Perfect Circle
Song- Sleeping Beauty

Gtr I (Db Gb B E Ab Db) - 'Distortion'
Gtr II (Db Gb B E Ab Db) - 'Distortion (w/delay)'
Gtr III (Db Gb B E Ab Db) - 'Distortion (w/Leslie and octaver - set to double one octave above)'

 Intro (1/2 time feel)
  Moderate Rock Q=120
  D5                            E
 6/4                           7/4
  Gtr I
                                PM|               PM       PM
  E E E E E E E E +E  E E E     E E  E  E   E  E  E  E  E  E  E  E   Q
|---------------------------||-------------------------------------------|
|---------------------------||o------------------------------------------|
|---------------------------||-------------------------------------------|
|---0-----0-----0-(0)---0---||-------------------------------------------|
|-4---4-4---0-2-------2---0-||o-9-9-11p=9--11p=9--9-11p=9--9-11p=9--11\--|
|---------------------------||--0-0--0-(0)--0-(0)-0--0-(0)-0--0-(0)--0---|


  D5
 6/4
  E E E E E E E E +E  E E E   3x
|-----------------------------||
|----------------------------o||
|-----------------------------||
|---0-----0-----0-(0)---0-----||
|-4---4-4---0-2-------2---0--o||
|-----------------------------||


 Verse                                    Verse
  E                                        D5
 7/4                                      6/4
  Gtr II
   Q    Q    E  Q    E  +H.                 +Q     +H.            +H
|----------------------------------------|----------------------------------|
|----------------------------------------|----------------------------------|
|-13---13---13-14---16-(16)--------------|-(16)---(16)-----------(16)-------|
|--x----x----x--x----x-------------------|----------------------------------|
|-11---11---11-12---14-(14)--------------|-(14)---(14)-----------(14)-------|
|----------------------------------------|----------------------------------|
|
| Gtr I
|  PM---------------------------------------------------------------------|
|  E E  E E  E  E E  E   E  E  E E  E E      E  E   E  E E E E E  +E  E E E
|----------------------------------------|----------------------------------|
|----------------------------------------|----------------------------------|
|----------------------------------------|----------------------------------|
|----------------------------------------|------0--------0-----0--(0)---0---|
|--9-9-11-9-11--9-9-11---9--9-11-9-11-9\-|---4------4--4---0-2--------2---0-|
|--0-0--0-0--0--0-0--0---0--0--0-0--0-0--|----------------------------------|


  E                                        D5
 7/4                                      6/4
   Q    E  E  E  Q    E +H.                 H.            H.
|----------------------------------------|-------------------------------|
|----------------------------------------|-------------------------------|
|-13---13-13-13-11----9-(9)--------------|-11------------\7--------------|
|--x----x--x--x--x----x------------------|--x-------------x--------------|
|-11---11-11-11--9----7-(7)--------------|--9------------\5--------------|
|----------------------------------------|-------------------------------|
|
|  PM------------------------------------------------------------------|
|  E E  E  E  E  E E  E  E  E  E E  E E     E  E E E E E  E  E +E  E E E
|----------------------------------------|-------------------------------|
|----------------------------------------|-------------------------------|
|----------------------------------------|-------------------------------|
|----------------------------------------|-----0-----0-------0-(0)---0---|
|--9-9-11--9-11--9-9-11--9--9-11-9-11-9\-|--4----4-4---0--2--------2---0-|
|--0-0--0--0--0--0-0--0--0--0--0-0--0-0--|-------------------------------|


  E
 7/4
    Q    Q    E  Q    E  +H.
|-----------------------------------------|
|-----------------------------------------|
|-/13---13---13-14---16-(16)--------------|
|---x----x----x--x----x-------------------|
|-/11---11---11-12---14-(14)--------------|
|-----------------------------------------|
|
|   PM-------------------------------------
|   E E  E E  E  E E  E   E  E  E E  E E
|-----------------------------------------|
|-----------------------------------------|
|-----------------------------------------|
|-----------------------------------------|
|---9-9-11-9-11--9-9-11---9--9-11-9-11-9\-|
|---0-0--0-0--0--0-0--0---0--0--0-0--0-0--|


  D5
 6/4
                              |--3--|
   +W                 +Q     +Q     E
|---------------------------------------|
|---------------------------------------|
|-(16)---------------(16)---(16)---16s==|
|-----------------------------------x---|
|-(14)---------------(14)---(14)---14s==|
|---------------------------------------|
|
|--------------------------------|
|   E  E E E E E E E  +E  E   E  E
|---------------------------------------|
|---------------------------------------|
|---------------------------------------|
|------0-----0-----0--(0)-----0---------|
|---4----4-4---0-2--------2------0------|
|---------------------------------------|


  E
 7/4
   H         +E    Q    +E   +H          S  E.
|-------------------------------------------------|
|-------------------------------------------------|
|-19--------(19)-\16---(16)-(16)--------16s19-----|
|------------------x---------------------x--------|
|-17--------(17)-\14---(14)-(14)--------14s17-----|
|-------------------------------------------------|
|
|  PM----------------------------------------------
|  E E  E E   E    E E   E    E  E  E E  E     E
|-------------------------------------------------|
|-------------------------------------------------|
|-------------------------------------------------|
|-------------------------------------------------|
|--9-9-11-9--11----9-9--11----9--9-11-9-11-----9\-|
|--0-0--0-0---0----0-0---0----0--0--0-0--0-----0--|


  D5
 6/4
   +H         E  Q    E  +H
|-----------------------------------|
|-----------------------------------|
|-(19)-------19s16---16-(16)--------|
|-------------x-------x-------------|
|-(17)-------17s14---14-(14)--------|
|-----------------------------------|
|
|--------------------------------|
|   E  E E E  E  E E  E  +E  E E E
|-----------------------------------|
|-----------------------------------|
|-----------------------------------|
|------0------0-------0--(0)---0----|
|---4----4-4-----0-2---------2---0--|
|-----------------------------------|


                     Interlude
                      E7/G#
 3/4
   +E   +E   Q  Q     W            W               W
|------------------||------------|--------------|------------|
|------------------||------------|--------------|------------|
|-(16)-(16)\-------||------------|--------------|------------|
|------------------||------------|--------------|------------|
|-(14)-(14)\-------||------------|--------------|------------|
|------------------||------------|--------------|------------|
|
|   W                 Q  E E E E   E E E E E  E    H     E E
|------------------||------------|--------------|------------|
|------------------||------------|--------------|------------|
|------------------||------------|--------------|------------|
|------------------||-6--6-6-6s7-|-7s9-9-9-9s12-|-12----12s9-|
|------------------||-x--x-x-x---|-x---x-x-x----|--x-----x---|
|------------------||-4--4-4-4s5-|-5s7-7-7-7s10-|-10----10s7-|


  Gtr I
  H    E E   Q  E E E E   E E E E E  E    Q.    E  E E   E Q   E E E
|----------|------------|--------------|---------------|-------------||
|----------|------------|--------------|---------------|-------------||
|----------|------------|--------------|---------------|-------------||
|-9----9s6-|-6--6-6-6s7-|-7s9-9-9-9s12-|-12----12-12s9-|-9-9s=21-----||
|-x----x---|-x--x-x-x---|-x---x-x-x----|--x-----x--x---|-x-x---x-----||
|-7----7s4-|-4--4-4-4s5-|-5s7-7-7-7s10-|-10----10-10s7-|-7-7s=19-0-0-||


 Pre-Chorus
  E7/G#
  Q  E E E E   E E E E E  E    H     E E   H    E E
|------------|--------------|------------|----------|
|------------|--------------|------------|----------|
|------------|--------------|------------|----------|
|-6--6-6-6s7-|-7s9-9-9-9s12-|-12----12s9-|-9----9s6-|
|-x--x-x-x---|-x---x-x-x----|--x-----x---|-x----x---|
|-4--4-4-4s5-|-5s7-7-7-7s10-|-10----10s7-|-7----7s4-|


  Q  E E E E   E E E E E  E    Q.    E  E E   Q  E E E E
|------------|--------------|---------------|------------||
|------------|--------------|---------------|------------||
|------------|--------------|---------------|------------||
|-6--6-6-6s7-|-7s9-9-9-9s12-|-12----12-12s9-|-9--9-9-9---||
|-x--x-x-x---|-x---x-x-x----|--x-----x--x---|-x--x-x-x---||
|-4--4-4-4s5-|-5s7-7-7-7s10-|-10----10-10s7-|-7--7-7-7-0-||


 Chorus
  E
 4/4
    PM              PM         PM                PM|
  E E  E  E   E  E  E  E    E  E  E  E   E  E  E S S
|------------------------|---------------------------|
|------------------------|---------------------------|
|------------------------|---------------------------|
|------------------------|---------------------------|
|-9-9-11p=9--11p=9--9-11p|==9--9-11p=9--11p=9--9-0-0-|
|-0-0--0-(0)--0-(0)-0--0-|-(0)-0--0-(0)--0-(0)-0-----|


  D5
  E E E E E E E E   E E E E +E  E E E
|-----------------|-------------------|
|-----------------|-------------------|
|-----------------|-------------------|
|---0-----0-------|-0-----0-(0)-------|
|-4---4-4---0-0-2-|---2-2-------2-2-0-|
|-----------------|-------------------|


  E
    PM              PM         PM                PM|
  E E  E  E   E  E  E  E    E  E  E  E   E  E  E S S
|------------------------|---------------------------|
|------------------------|---------------------------|
|------------------------|---------------------------|
|------------------------|---------------------------|
|-9-9-11p=9--11p=9--9-11p|==9--9-11p=9--11p=9--9-0-0-|
|-0-0--0-(0)--0-(0)-0--0-|-(0)-0--0-(0)--0-(0)-0-----|


  D5
  E E E E E E E E   E E E E +E  E E E
|-----------------|-------------------||
|-----------------|-------------------||
|-----------------|-------------------||
|---0-----0-------|-0-----0-(0)-------||
|-4---4-4---0-0-2-|---2-2-------2-2-0-||
|-----------------|-------------------||


 Verse
  E
  PM----------------------------------------
  E E  E E  E E E  E   E E  E E  E E E S S
|--------------------|---------------------|
|--------------------|---------------------|
|--------------------|---------------------|
|--------------------|---------------------|
|-9-9-11-9-11-9-9-11-|-9-9-11-9-11-9-9-0-0-|
|-0-0--0-0--0-0-0--0-|-0-0--0-0--0-0-0-----|


  D5
 -----------------------------------|
  E E E E E E E E   E E E E +E  E E E
|-----------------|-------------------|
|-----------------|-------------------|
|-----------------|-------------------|
|---0-----0-------|-0-----0-(0)-------|
|-4---4-4---0-0-2-|---2-2-------2-2-0-|
|-----------------|-------------------|


    E
    PM----------------------------------------
    E E  E E  E E E  E   E E  E E  E E E S S
||---------------------|---------------------|
||o--------------------|---------------------|
||---------------------|---------------------|
||---------------------|---------------------|
||o-9-9-11-9-11-9-9-11-|-9-9-11-9-11-9-9-0-0-|
||--0-0--0-0--0-0-0--0-|-0-0--0-0--0-0-0-----|


  D5
 -----------------------------------|
  E E E E E E E E   E E E E +E  E E E
|-----------------|---------------------||
|-----------------|--------------------o||
|-----------------|---------------------||
|---0-----0-------|-0-----0-(0)---------||
|-4---4-4---0-0-2-|---2-2-------2-2-0--o||
|-----------------|---------------------||


  E
  PM-------------------------------------|
  E E  E E  E E E  E   E E  E E  E E E S S
|--------------------|---------------------|
|--------------------|---------------------|
|--------------------|---------------------|
|--------------------|---------------------|
|-9-9-11-9-11-9-9-11-|-9-9-11-9-11-9-9-0-0-|
|-0-0--0-0--0-0-0--0-|-0-0--0-0--0-0-0-----|


  D5
  E E E E E E E E   E E E E +E  E E E
|-----------------|-------------------||
|-----------------|-------------------||
|-----------------|-------------------||
|---0-----0-------|-0-----0-(0)-------||
|-4---4-4---0-0-2-|---2-2-------2-2-0-||
|-----------------|-------------------||


   Interlude
    E7/G#
   3/4
    Q  E E E E   E E E E E  E    H     E E   H    E E  3x
||-------------|--------------|------------|-----------||
||o------------|--------------|------------|----------o||
||-------------|--------------|------------|-----------||
||--6--6-6-6s7-|-7s9-9-9-9s12-|-12----12s9-|-9----9s6--||
||o-x--x-x-x---|-x---x-x-x----|--x-----x---|-x----x---o||
||--4--4-4-4s5-|-5s7-7-7-7s10-|-10----10s7-|-7----7s4--||


  Q  E E E E   E E E E E  E    Q.    E  E E   Q  E E E E
|------------|--------------|---------------|------------|
|------------|--------------|---------------|------------|
|------------|--------------|---------------|------------|
|-6--6-6-6s7-|-7s9-9-9-9s12-|-12----12-12s9-|-9--9-9-9---|
|-x--x-x-x---|-x---x-x-x----|--x-----x--x---|-x--x-x-x---|
|-4--4-4-4s5-|-5s7-7-7-7s10-|-10----10-10s7-|-7--7-7-7-0-|

[ Tab from: http://www.guitartabs.cc/tabs/a/a_perfect_circle/sleeping_beauty_tab_ver_3.html ]
 Pre-Chorus
  E7/G#
  Gtr I
   Q   E  E  E  E    E E E E  E   E    H         E E   H           E  E
|-----------------|-----------------|----------------|------------------|
|-----------------|-----------------|----------------|------------------|
|-----------------|-----------------|----------------|------------------|
|--6---6--6--6s=7-|--7s9-9-9--9s=12-|-12--------12s9-|-9-----------9s=6-|
|--x---x--x--x----|--x---x-x--x-----|--x---------x---|-x-----------x----|
|--4---4--4--4s=5-|--5s7-7-7--7s=10-|-10--------10s7-|-7-----------7s=4-|
|
| Gtr II
|  Q   E  E  E  E    E Q   E +E   E    Q   E  E  E E   E  E  E  E  E  E
|-----------------|-----------------|----------------|------------------|
|-----------------|-----------------|----------------|------------------|
|-13--13-13-13-11-|-11-9---9-(9)-11-|-11--11-11-11-9-|-9s13-13-13-13-14-|
|--x---x--x--x--x-|--x-x---x------x-|--x---x--x--x-x-|-x-----x--x--x--x-|
|-11--11-11-11--9-|--9-7---7-(7)--9-|--9---9--9--9-7-|-7s11-11-11-11-12-|
|-----------------|-----------------|----------------|------------------|


   Q   E  E  E  E    E E E E  E   E    H         E E   H      E  E
|-----------------|-----------------|----------------|-------------|
|-----------------|-----------------|----------------|-------------|
|-----------------|-----------------|----------------|-------------|
|--6---6--6--6s=7-|--7s9-9-9--9s=12-|-12--------12s9-|-9------9s=6-|
|--x---x--x--x----|--x---x-x--x-----|--x---------x---|-x------x----|
|--4---4--4--4s=5-|--5s7-7-7--7s=10-|-10--------10s7-|-7------7s=4-|
|
|  Q   E  E  E  E    E Q   E +E   E    Q   E  E  E E   Q  E E E  E
|-----------------|-----------------|----------------|-------------|
|-----------------|-----------------|----------------|-------------|
|-13--13-13-13-11-|-11-9---9-(9)-11-|-11--11-11-11s7-|-7--7-7-7s13-|
|--x---x--x--x--x-|--x-x---x------x-|--x---x--x--x---|-x--x-x-x----|
|-11--11-11-11--9-|--9-7---7-(7)--9-|--9---9--9--9s5-|-5--5-5-5s11-|
|-----------------|-----------------|----------------|-------------|


   Q   E  E  E  E    E E E E  E   E    H         E E   H           E  E
|-----------------|-----------------|----------------|------------------|
|-----------------|-----------------|----------------|------------------|
|-----------------|-----------------|----------------|------------------|
|--6---6--6--6s=7-|--7s9-9-9--9s=12-|-12--------12s9-|-9-----------9s=6-|
|--x---x--x--x----|--x---x-x--x-----|--x---------x---|-x-----------x----|
|--4---4--4--4s=5-|--5s7-7-7--7s=10-|-10--------10s7-|-7-----------7s=4-|
|
|  Q   E  E  E  E    E Q   E +E   E    Q   E  E  E E   E  E  E  E  E  E
|-----------------|-----------------|----------------|------------------|
|-----------------|-----------------|----------------|------------------|
|-13--13-13-13-11-|-11-9---9-(9)-11-|-11--11-11-11-9-|-9s13-13-13-13s16-|
|--x---x--x--x--x-|--x-x---x------x-|--x---x--x--x-x-|-x-----x--x--x----|
|-11--11-11-11--9-|--9-7---7-(7)--9-|--9---9--9--9-7-|-7s11-11-11-11s14-|
|-----------------|-----------------|----------------|------------------|


   Q   E  E  E  E    E E  E  E  E  E    H         E  E    Q   E  E  E  E
|-----------------|------------------|-----------------|-----------------||
|-----------------|------------------|-----------------|-----------------||
|-----------------|------------------|-----------------|-----------------||
|--6---6--6--6s=7-|--7s9--9--9--9s12-|-12--------12s=9-|--9---9--9--9----||
|--x---x--x--x----|--x----x--x--x----|--x---------x----|--x---x--x--x----||
|--4---4--4--4s=5-|--5s7--7--7--7s10-|-10--------10s=7-|--7---7--7--7--0-||
|
|  Q   E  E  E  E    Q    E  E  E  E    Q   E  E  E  E    Q   E  E  Q
|-----------------|------------------|-----------------|-----------------||
|-----------------|------------------|-----------------|-----------------||
|-16--16-16-16s14-|-13---13-13-13s19-|-19--19-19-19s16-|-16--16-16-16\---||
|--x---x--x--x----|--x----x--x--x----|--x---x--x--x----|--x---x--x--x----||
|-14--14-14-14s12-|-11---11-11-11s17-|-17--17-17-17s14-|-14--14-14-14\---||
|-----------------|------------------|-----------------|-----------------||


 Interlude
  A                                         C           A
  Gtr I
  Q.   E +E  E   Q.   E +E  E   Q.   E Q    Q  E E Q    Q.   E +E  E
|-0----0-(0)-0-|-0----0-(0)-0-|-0----0-0--|-0--0-0-0--|-0----0-(0)-0-|
|-x----x-----x-|-x----x-----x-|-x----x-x--|-x--x-x-x--|-x----x-----x-|
|-6----6-(6)-6-|-6----6-(6)-6-|-6----6-6S=|=9--9-9-9S=|=6----6-(6)-6-|
|-x----x-----x-|-x----x-----x-|-x----x-x--|-x--x-x-x--|-x----x-----x-|
|-4----4-(4)-4-|-4----4-(4)-4-|-4----4-4S=|=7--7-7-7S=|=4----4-(4)-4-|
|-5----5-(5)-5-|-5----5-(5)-5-|-5----5-5S=|=8--8-8-8S=|=5----5-(5)-5-|


                   G6          Dadd9          A
  Q.   E +E  E   E  E  Q  Q     Q.    E  Q    Q  E E E   +E    Q.   E E   +E
|-0----0-(0)-0-|-0-(0)-0--0--|--0-----0--0--|-0--0-0-0-------|-0----0-0-------|
|-x----x-----x-|-x-----x--x--|--x-----x--x--|-x--x-x-x-------|-x----x-x-------|
|-6----6-(6)-6-|-6s=4--4--4S=|=11----11-11S=|=6--6-6-6b7-(6)-|-6----6-6b7-(6)-|
|-x----x-----x-|-x-----x--x--|--x-----x--x--|-x--x-x-x-------|-x----x-x-------|
|-4----4-(4)-4-|-4s=2--2--2S=|==9-----9--9S=|=4--4-4-4-------|-4----4-4-------|
|-5----5-(5)-5-|-5s=3--3--3S=|=10----10-10S=|=5--5-5-5-------|-5----5-5-------|


              C           A                               G6
  Q.   E Q    Q  E E Q    Q.   E +E  E   Q.   E +E  E   E E Q  Q
|-0----0-0--|-0--0-0-0--|-0----0-(0)-0-|-0----0-(0)-0-|-0---0--0---|
|-x----x-x--|-x--x-x-x--|-x----x-----x-|-x----x-----x-|-x---x--x---|
|-6----6-6S=|=9--9-9-9S=|=6----6-(6)-6-|-6----6-(6)-6-|-6s4-4--4S==|
|-x----x-x--|-x--x-x-x--|-x----x-----x-|-x----x-----x-|-x---x--x---|
|-4----4-4S=|=7--7-7-7S=|=4----4-(4)-4-|-4----4-(4)-4-|-4s2-2--2S==|
|-5----5-5S=|=8--8-8-8S=|=5----5-(5)-5-|-5----5-(5)-5-|-5s3-3--3S==|


                    Interlude (End 1/2 Time)
  Dadd9              A
  Gtr III
   Q   Q     E  E    E E E E E  E   E E E E E  E   E E E E E  E
|-----------------||--------------|--------------|---------------|
|---------------xS||=9-9-9-9-9-12-|-9-9-9-9-9-12-|-9-9-9-9-9-12--|
|-----------------||--------------|--------------|---------------|
|-----------------||--------------|--------------|---------------|
|-----------------||--------------|--------------|---------------|
|-----------------||--------------|--------------|---------------|
|
| Gtr I
|                    PM--------------------------------------|
|  Q   E  E  Q       E E E E E  E   E E E E E  E   E E E E E  E
|--0---0--0--0----||-0------------|--------------|---------------|
|--x---x--x--x----||-x------------|--------------|---------------|
|-11--11-11-11\---||-6-6-6-6-6--6-|-6-6-6-6-6--6-|-6-6-6-6-6--6S=|
|--x---x--x--x----||-x-x-x-x-x--x-|-x-x-x-x-x--x-|-x-x-x-x-x--x--|
|--9---9--9--9\---||-4-4-4-4-4--4-|-4-4-4-4-4--4-|-4-4-4-4-4--4S=|
|-10--10-10-10\---||-5-5-5-5-5--5-|-5-5-5-5-5--5-|-5-5-5-5-5--5S=|


  C                 A                                G
  E  E E  E  E  E   E E E E E  E   E E E  E E  E   E  E  E  E  E  E
|-9----9----------|--------------|---------------|-------------------|
|---12---12-10-12-|-9-9-9-9-9-12-|-9-9-9-12-9-12-|-9-----------------|
|-----------------|--------------|---------------|---11-11-11-11-11--|
|-----------------|--------------|---------------|-------------------|
|-----------------|--------------|---------------|-------------------|
|-----------------|--------------|---------------|-------------------|
|
| PM-------------------------------------------------------------|
| E  E E  E  E  E   E E E E E  E   E E E  E E  E   E  E  E  E  E  E
|-----------------|--------------|---------------|-------------------|
|-----------------|--------------|---------------|-------------------|
|-9--9-9--9--9--9S|=6-6-6-6-6--6-|-6-6-6--6-6--6-|-6--4--4--4--4--4S=|
|-x--x-x--x--x--x-|-x-x-x-x-x--x-|-x-x-x--x-x--x-|-x--x--x--x--x--x--|
|-7--7-7--7--7--7S|=4-4-4-4-4--4-|-4-4-4--4-4--4-|-4--2--2--2--2--2S=|
|-8--8-8--8--8--8S|=5-5-5-5-5--5-|-5-5-5--5-5--5-|-5--3--3--3--3--3S=|


  D                   A
   E  E  E  E  E  E   E E E E E  E   E S S E  E E  E   E S S E  E E  E
|--9--9--9----------|--------------|-----------------|------------------|
|----------12-10-12-|-9-9-9-9-9-12-|-9-9-9-9-10-9-10-|-9-9-9-9-12-9-12--|
|-------------------|--------------|-----------------|------------------|
|-------------------|--------------|-----------------|------------------|
|-------------------|--------------|-----------------|------------------|
|-------------------|--------------|-----------------|------------------|
|
|  PM-------------------|            PM|               PM|
|  E  E  E  E  E  E   E E E E E  E   E E   E  E E  E   E E   E  E E  E
|-------------------|--------------|-----------------|------------------|
|-------------------|--------------|-----------------|------------------|
|-11-11-11-11-11-11-|-6-6-6-6-6--6-|-6-6---6--6-6--6-|-6-6---6--6-6--6S=|
|--x--x--x--x--x--x-|-x-x-x-x-x--x-|-x-x---x--x-x--x-|-x-x---x--x-x--x--|
|--9--9--9--9--9--9-|-4-4-4-4-4--4-|-4-4---4--4-4--4-|-4-4---4--4-4--4S=|
|-10-10-10-10-10-10-|-5-5-5-5-5--5-|-5-5---5--5-5--5-|-5-5---5--5-5--5S=|


  C                     A                                   G6
  E S S E  S  S  E  E   E E E  E E  E    E E  E E  E E    E  E  E  E  Q
|-9-9-9-9-------------|-------10-9----|----------------|-------------------|
|---------12-12-10-12-|-9-9-9------12-|-10-9----9----9-|-10----------------|
|---------------------|---------------|------11---11---|----11-11-11-11----|
|---------------------|---------------|----------------|-------------------|
|---------------------|---------------|----------------|-------------------|
|---------------------|---------------|----------------|-------------------|
|
| PM-------------------------------------------------|
| E E   E  S  S  E  E   E E E  E E  E    E E  E E  E E    E  Q     E  E E
|---------------------|---------------|----------------|--0--0-----0--0-0--|
|---------------------|---------------|----------------|--x--x-----x--x-x--|
|-9-9---9--9--9--9--9S|=6-6-6--6-6--6-|--6-6--6-6--6-6-|--6--4-----4--4-4S=|
|-x-x---x--x--x--x--x-|-x-x-x--x-x--x-|--x-x--x-x--x-x-|--x--x-----x--x-x--|
|-7-7---7--7--7--7--7S|=4-4-4--4-4--4-|--4-4--4-4--4-4-|--4--2-----2--2-2S=|
|-8-8---8--8--8--8--8S|=5-5-5--5-5--5-|--5-5--5-5--5-5-|--5--3-----3--3-3S=|


                     Outro
  Dadd9               E
                     7/4
   E E  E  E  Q       W
|------------------||----------------------------------|
|------------------||----------------------------------|
|-11-9--9--9-------||----------------------------------|
|------------11----||----------------------------------|
|------------------||----------------------------------|
|------------------||----------------------------------|
|
|                     PM------------------------|
|  Q    E  E  E  E    E E  E E  E E E  E E E  E E  Q
|--0----0--0--0--0-||----------------------------------|
|--x----x--x--x--x-||----------------------------------|
|-11---11-11-11-11-||-----------------------------13\--|
|--x----x--x--x--x-||----------------------------------|
|--9----9--9--9--9-||-9-9-11-9-11-9-9-11-9-9-11-9-11\--|
|-10---10-10-10-10-||-0-0--0-0--0-0-0--0-0-0--0-0------|


 1/2 Time Feel
  D5
 6/4
  W
|---------------------------|
|---------------------------|
|---------------------------|
|---------------------------|
|---------------------------|
|---------------------------|
|
| E E E E E E E E +E  E E E
|---------------------------|
|---------------------------|
|---------------------------|
|---0-----0-----0-(0)---0---|
|-4---4-4---0-2-------2-----|
|-------------------------0-|


  E                                          D5
 7/4                                        6/4
  Gtr I
  PM|               PM       PM
  E E  E  E   E  E  E  E  E  E  E  E   Q     E E E E E E E E +E  E E E
|------------------------------------------|---------------------------|
|------------------------------------------|---------------------------|
|------------------------------------------|---------------------------|
|------------------------------------------|---0-----0-----0-(0)---0---|
|-9-9-11p=9--11p=9--9-11p=9--9-11p=9--11\--|-4---4-4---0-2-------2---0-|
|-0-0--0-(0)--0-(0)-0--0-(0)-0--0-(0)--0---|---------------------------|


  E
 7/4
  PM|               PM       PM
  E E  E  E   E  E  E  E  E  E  E  E   Q
|--------------------------------------------|
|--------------------------------------------|
|--------------------------------------------|
|--------------------------------------------|
|-9-9-11p=9--11p=9--9-11p=9--9-11p=9--11\----|
|-0-0--0-(0)--0-(0)-0--0-(0)-0--0-(0)--0-----|


  D5
 6/4
  E E E E E E E E +E  E E E
|---------------------------|
|---------------------------|
|---------------------------|
|---0-----0-----0-(0)---0---|
|-4---4-4---0-2-------2---0-|
|---------------------------|


  E                                          C#5
 7/4                                        6/4
  PM|               PM       PM
  E E  E  E   E  E  E  E  E  E  E  E   Q     Q  Q  H    H
|------------------------------------------|-----------------*|
|------------------------------------------|-----------------*|
|------------------------------------------|-6---------------*|
|------------------------------------------|-x---------------*|
|-9-9-11p=9--11p=9--9-11p=9--9-11p=9--11\--|-4---------------*|
|-0-0--0-(0)--0-(0)-0--0-(0)-0--0-(0)--0---|-----------------*|


Duration Legend
---------------
W - whole; H - half; Q - quarter; E - 8th; S - 16th; T - 32nd; X - 64th; a - acciaccatura
+ - note tied to previous; . - note dotted; .. - note double dotted
Uncapitalized letters represent notes that are staccato (1/2 duration)
Irregular groupings are notated above the duration line
Duration letters will always appear directly above the note/fret number it represents the
duration for.  Duration letters with no fret number below them represent rests.  Multi-
bar rests are notated in the form Wxn, where n is the number of bars to rest for.  Low
melody durations appear below the staff

Tablature Legend
----------------
 h   - hammer-on
 p   - pull-off
 b   - bend
 pb  - pre-bend
 r   - bend release (if no number after the r, then release immediately)
 /\  - slide into or out of (from/to "nowhere")
 s   - legato slide
 S   - shift slide
  - natural harmonic
[n]  - artificial harmonic
n(n) - tapped harmonic
 ~   - vibrato
 tr  - trill
 T   - tap
 TP  - trem. picking
 PM  - palm muting
\n/  - tremolo bar dip; n = amount to dip
 \n  - tremolo bar down
 n/  - tremolo bar up
/n\  - tremolo bar inverted dip
 =   - hold bend; also acts as connecting device for hammers/pulls
 <>  - volume swell (louder/softer)
 x   - on rhythm slash represents muted slash
 o   - on rhythm slash represents single note slash

Misc Legend
-----------
 |  - bar
||  - double bar
||o - repeat start
o|| - repeat end
*|  - double bar (ending)
 :  - bar (freetime)
 $  - Segno
 &  - Coda
Tempo markers -  = BPM(8/16=s8/s16), where s8 = swing 8ths, s16 = swing 16ths


***************************************************************************************
* Generated using Power Tab Editor by Brad Larsen - http://powertab.guitarnetwork.org *
***************************************************************************************
Comments