A Perfect Circle - Rose Chords & Tabs

 

Rose Chords & Tabs

A Perfect Circle Chords & Tabs

Version: 2 Type: Tab 0 ratings
1 star 2 stars 3 stars 4 stars 5 stars
comments

Rose Tab

   
Author/Artist: A Perfect Circle
Title: Rose
Album: La Cascade Des Prenoms
Transcribed by: rob hillstead
Email: utopia_hostage@hotmail.com

This tuning is super weird, it's in like this, from top to bottom
B
F#
B
E
G#
C#
or one and a half steps down, with the top string dropped
C'mon people, there's like no a perfect circle tabs on the net!!!


--------0----------0----------0-----------------------------------------------
-----7----------7----------7---------7----------------------------------------
---6----------6----------6---------6------------------------------------------
-4----------4----------4---------4-----4-0------------------------------------
------------------------------------------------------------------------------
------------------------------------------------------------------------------
 Intro, reverb acoustic guitar.                                               

--------0----------0----------0-----------------------------------------------
-----7----------7----------7---------7----------------------------------------
---6----------6----------6---------6------------------------------------------
-4----------4----------4---------4------4-0-----------------------------------
------------------------------------------------------------------------------
------------------------------------------------------------------------------
 Don't      disturb    the beast....                                          

------------------------------------------------------------------------------
------------------------------------------------------------------------------
------------------------------------------------------------------------------
------------------------------------------------------------------------------
------------------------------------------------------------------------------
--------4-4/7------4-4/9-----4-4/7------4-0-----------------------------------
 Distorted bass.                                                              

------------------------------------------------------------------------------
------------------------------------------------------------------------------
------------------------------------------------------------------------------
--5------------5-----------5-----------5--------------------------------------
--5-----2v-----5-----2v----5-----2v----5-----2-3------------------------------
--5------------5-----------5-----------5--------------------------------------
 This has fancy effect on it, live, they play it like this...                 

------------------------------------------------------------------------------
-------5------------5-----------5------------5--------------------------------
-----0------------0-----------0------------0---0------------------------------
---4------------4-----------4------------4------------------------------------
-5------------5-----------5------------5--------------------------------------
------------------------------------------------------------------------------
 Reverby acoustic guitar...                                                   

---------0-----------0-----------0--------------------------------------------
------7-----------7-----------7------------7----------------------------------
----6-----------6-----------6------------6------------------------------------
--4-----------4-----------4------------4-----4-0------------------------------
------------------------------------------------------------------------------
------------------------------------------------------------------------------
  Same as the beginning.  
----------------------------------------------------------------------
------------------------------------------------------------------------------
------------------------------------------------------------------------------
--------4-4/7---------4-4/9-------4-4/7-------4-0-----------------------------
        will i        lay down    lay dead    lay your...                     

------------------------------------------------------------------------------
------------------------------------------------------------------------------
------------------------------------------------------------------------------
--------4-4/7---------4-4/9-------4-4/7-------4-0-----------------------------
--------4-4/7---------4-4/9-------4-4/7-------4-0-----------------------------
--------4-4/7---------4-4/9-------4-4/7-------4-0-----------------------------
 guitar comes in and repeats this                                             

------------------------------------------------------------------------------
------------------------------------------------------------------------------
------------------------------------------------------------------------------
-0----4-4-4-4--7-7--0----4-4-4-4--9-9---0---4-4-4-4---0---4-4--0-0------------
-0----4-4-4-4--7-7--0----4-4-4-4--9-9---0---4-4-4-4---0---4-4--0-0------------
-0----4-4-4-4--7-7--0----4-4-4-4--9-9---0---4-4-4-4---0---4-4--0-0------------
 palm muted guitar                                                            

------------------------------------------------------------------------------
------------------------------------------------------------------------------
------------------------------------------------------------------------------
-0-----44444444-7777--0-----44444444-9999--0-----44444444-77777-9-9-11-12-----
-0-----44444444-7777--0-----44444444-9999--0-----44444444---------------------
-0-----44444444-7777--0-----44444444-9999--0-----44444444---------------------
 double speed                                                                 

------------------------------------------------------------------------------
------------------------------------------------------------------------------
---------4v-------------4v------------4v------------4-5-----------------------
--5--------------5--------------5------------5--------------------------------
--5--------------5--------------5------------5--------------------------------
--5--------------5--------------5------------5--------------------------------
  this part again (i wish i had that effect!)                                 
[ Tab from: http://www.guitartabs.cc/tabs/a/a_perfect_circle/rose_tab_ver_2.html ]
------------------------------------------------------------------------------
-------5---------------5--------------5------------5--------------------------
-----0---------------0--------------0------------0---0------------------------
---4---------------4--------------4------------4------------------------------
-5---------------5--------------5------------5--------------------------------
------------------------------------------------------------------------------
 acoustic reverb guitar                                                       

------------------------------------------------------------------------------
------------------------------------------------------------------------------
------------------------------------------------------------------------------
-4--4/7---------4--4/9----------4--4/7-------4--0-----------------------------
-4--4-7---------4--4/9----------4--4/7-------4--0-----------------------------
-4--4-7---------4--4/9----------4--4/7-------4--0-----------------------------
 i am           i will          shall no     longer....                       


=========

 
 
 
* A PERFECT CIRCLE * 
 
"Rose" 
>From the album 'Mer de noms ' 
______________________________________________________________________________ 
 
 
tune down 1/2 step (low to high: Eb Ab Db Gb Bb Eb) 
 
^ = bend note up slightly 
 
he's got some weird effect going on in here - i think it might be  
some kind of whacked flange. i have an ibanez chorus/flange pedal, 
and if i set it up to "whacked" mode (it's seriously called that), and 
put it to flange, and set it to half speed, full depth, full delay, 
and half regen, i get an effect similar to this. (i did that from 
memory. any of you with ibanez chorus/flange's decide to try it,  
don't sue me if i said that wrong. just be happy with the damn tab. 
:P ) 
 
|-------0-----------0----|-------0-----------------|| 
|-------5-----------5----|-------5---------5-------|| 
|-----------7----------7-|----------7---7--------7-|| 
|------------------------|---------------------5---|| 
|--7-7^--------7-7^------|-7-7^-------7------------|| 
|------------------------|-------------------8-----|| 
 
 
this is the feedback sounding guitar part at 0:18 
 
|-------------------------------|| 
|-------------------------------|| 
|-14-----14-----14----14--15----|| 
|-------------------------------|| 
|-------------------------------|| 
|-------------------------------|| 
 
 
(0:30) 
|--------------------------------------------------------|| 
|-----1-3--------1-3-------1-3-------1-3-------1-3-1-----|| 
|---0---------0----------0---------0---------0-------0---|| 
|--------------------------------------------------------|| 
|-3---------3----------3---------3---------3-----------3-|| 
|--------------------------------------------------------|| 
 
 
egyptian scale solo at 1:07 
 
|------------------------------------------------------------------------------| 
|-/12--12--12-13-/15-13-12-13-12--10--|-12--12---12-13-/15-13-12-13-12--10--10-| 
|------------------------------------------------------------------------------| 
|------------------------------------------------------------------------------| 
|------------------------------------------------------------------------------| 
|------------------------------------------------------------------------------| 
 
~ = sustain note 
 
|-------------------------------------------------------------------|| 
|-17--15--17--15--17--15--17/18-17\15-15/13-12~~~~~~~~~~~~~~~~~~~~--|| 
|-------------------------------------------------------------------|| 
|-------------------------------------------------------------------|| 
|-------------------------------------------------------------------|| 
|-------------------------------------------------------------------|| 
 
 
 
(1:39) 
|---------------------------------------------|| 
|---------------------------------------------|| 
|------9/11\------9/14\------9/11\------9\5---|| 
|---------------------------------------------|| 
|------7/10\------7/12\------7/10\------7\3---|| 
|-0-0--------0-0---------0-0--------0-0-------|| 
 
 
this isn't the exact rhythm on this part - it's some real off-time from  
the rest of the 
stuff going on. kind of like a beat ahead one second, then a beat  
behind a next. listen 
to the song to get it down good. (1:50) 
 
|----------------------------|----------------------------|------------------------| 
|----------------------------|----------------------------|------------------------| 
|----------------------------|----------------------------|------------------------| 
|----------------------------|----------------------------|------------------------| 
|-7--7-7-7--7--7--7-10-10-10-|-5--5-5-5--5-5-12--12-12-12-|-7--7-7-7--7-7-10-10-10-| 
|----------------------------|----------------------------|------------------------| 
 
 
|--------------------|| 
|--------------------|| 
|--------------------|| 
|--------------------|| 
|--7-7-7-7\-3--3--3--|| 
|--------------------|| 
 
 
(1:56) 
|-----------------|-------------------------|-----------------|-------------------------| 
|-----------------|-------------------------|-----------------|-------------------------| 
|-----------------|-------------------------|-----------------|-------------------------| 
|-----------------|-------------------------|-----------------|-------------------------| 
|-7-7-7-7-7-7-7-7-|-10-10-10-10-10-10-10-10-|-7-7-7-7-7-7-7-7-|-12-12-12-12-12-12-12-12-| 
|-----------------|-------------------------|-----------------|-------------------------| 
 
 
|-----------------|-------------------------|-----------------|| 
|-----------------|-------------------------|-----------------|| 
|-----------------|-------------------------|-----------------|| 
|-----------------|-------------------------|-----------------|| 
|-7-7-7-7-7-7-7-7-|-10-10-10-10-10-10-10-10-|-7-7-7-7-3-3-3-3-|| 
|-----------------|-------------------------|-----------------|| 
 
 
(2:03) 
|--------------|| 
|--------------|| 
|--------------|| 
|--------------|| 
|---3------3---|| 
|-0-1----0-1---|| 
 
 
play this part again with the above. 
 
|-------------------------------|| 
|-------------------------------|| 
|-14-----14-----14----14--15----|| 
|-------------------------------|| 
|-------------------------------|| 
|-------------------------------|| 
 
 
here's the ending violin(s) solo, (more or less) transcribed for  
guitar: 
 
play the first part twice (it's kind of drug out in the song, so hold  
the notes out), then 
the second part at the very end. 
 
|-------17-------------------------|--------------------|| 
|-----17----18-17--------20--18-17-|--------------------|| 
|---17------17-17--------17--17-17-|--------------------|| 
|----------------------------------|-15h17p15-----------|| 
|----------------------------------|----------17/19-----|| 
|----------------------------------|--------------------||
Comments