A Perfect Circle - Pet Chords & Tabs

 

Pet Chords & Tabs

A Perfect Circle Chords & Tabs

Version: 3 Type: Tab 0 ratings
1 star 2 stars 3 stars 4 stars 5 stars
comments

Pet Tab

   
Band- A Perfect Circle
Song- Pet

Gtr I (C# F# B E G# C#) - 'Lead'
Gtr II (C# F# B E G# C#) - 'Rythm'
Gtr III (C# F# B E G# C#) - 'Clean'
Gtr IV (C# F# B E G# C#) - 'Clean 2'

   Intro
    Q=140
    F#5                 E5
   4/4
    Gtr I
    E  E  E  E  E  E  E  E
||-------12----12----12----|
||o---15----15----15----15-|
||-------------------------|
||-------------------------|
||o------------------------|
||-------------------------|
|
|   Gtr II
|   E  E  Q     Q     E  E
||-------------------------|
||o------------------------|
||-------------------------|
||-------------------------|
||o-4--4--4--------------2-|
||--2--2--2--------------0-|


  F#5      E5F#5     G5F#5           E5
   E  E  Q    +Q        +Q      +W                +W
|-12-------------------------|-----------------|---------|
|----15----------------------|-----------------|---------|
|-------11---(11)b12r==(11)--|-(11)------------|-(11)----|
|----------------------------|-----------------|---------|
|----------------------------|-----------------|---------|
|----------------------------|-----------------|---------|
|
|  Q     E E   E     E   Q       Q   E E Q  Q      W
|----------------------------|-----------------|---------|
|----------------------------|-----------------|---------|
|----------------------------|-----------------|---------|
|----------------------------|-----------------|---------|
|--4-------2---4s====5---4---|-------2-2-2-----|---------|
|--2-------0---2s====3---2---|-------0-0-0-----|---------|


  F#5                 E5   F#5      E5 F#5       G5F#5
  E  E  E  E  E  E  E  E    E  E  E  E  +Q          +Q
|------12----12----12----|-12----14----------------------|
|---15----15----15----15-|----15-------------------------|
|------------------------|----------11-(11)b11.5r==(11)--|
|------------------------|-------------------------------|
|------------------------|-------------------------------|
|------------------------|-------------------------------|
|
| E  E  Q     Q     E  E    Q     E  E   E       E   Q
|------------------------|-------------------------------|
|------------------------|-------------------------------|
|------------------------|-------------------------------|
|------------------------|-------------------------------|
|-4--4--4--------------2-|--4--------2---4s======5---4---|
|-2--2--2--------------0-|--2--------0---2s======3---2---|


                      1.
        E5
   +Q   E E H         +W
|-------------------|---------------------------||
|-------------------|--------------------------o||
|-(11)--9-9-9-------|-(9)-----------------------||
|-------------------|---------------------------||
|-------------------|--------------------------o||
|-------------------|---------------------------||
|
|   Q   E E Q  E  E    E   E  E  E  E  E  Q
|-------------------|---------------------------||
|-------------------|--------------------------o||
|-------------------|---------------------------||
|-------------------|---------------------------||
|-------2-2-2--2s12-|-12--12-12-12-12-12-12\---o||
|-------0-0-0-------|---------------------------||


  2.
                           F#5
  +W                       W               W
|-----------------------||--------------|----------------|
|-----------------------||--------------|----------------|
|-(9)-------------------||--------------|----------------|
|-----------------------||--------------|----------------|
|-----------------------||--------------|----------------|
|-----------------------||--------------|----------------|
|
|                          Gtr III
|  E   E  E  E  E  Q.      Q  E E Q  Q    +E  Q  E Q  Q
|-----------------------||--------------|----------------|
|-----------------------||--------------|----------------|
|-----------------------||--------0-----|----------0-----|
|-----------------------||------4----4--|-(4)---------4--|
|-12--12----12-12-------||----4---------|--------4-------|
|--------14-------12\---||-2------------|-----2----------|


                         1st Verse
  N.C.                    F#5
  Gtr III
  W          +W           Q  E E Q  Q    +E  Q  E Q  Q
|----------|------------|--------------|-----------------|
|----------|------------|--------------|-----------------|
|----------|------------|--------0-----|----------0------|
|----------|------------|------4----4--|-(4)---------4---|
|----------|------------|----4---------|--------4--------|
|-0--------|-(0)--------|-2------------|-----2-----------|


  N.C.           G5            F#5
  W          +E  Q  E Q  E E   Q  E E Q  Q    +E  Q  E Q  Q
|----------|-----------------|--------------|-----------------|
|----------|-----------------|--------------|-----------------|
|----------|-----------------|--------0-----|----------0------|
|----------|-----------------|------4----4--|-(4)---------4---|
|----------|----------5--5---|----4---------|--------4--------|
|-0--------|-(0)-3--3------0-|-2------------|-----2-----------|


  N.C.                    Asus2         Bsus2
                         3/4
  W          +W           Q  E Q  E   E E E  E  +Q
|----------|------------|-----------|-----------------|
|----------|------------|-----------|-----------------|
|----------|------------|-----------|-----------------|
|----------|------------|------9----|-------11-(11)\--|
|----------|------------|----7------|-----9-----------|
|-0--------|-(0)--------|-5-------5-|-5s7-------------|
|
|   Gtr IV
| W           W           Q  E Q  E   E E E  E   Q
|----------|------------|-----------|-----------------|
|----------|------------|------7----|-----------------|
|----------|------------|-6---------|-----------13----|
|----------|------------|-----------|-------11--------|
|----------|------------|----7----7-|-7s9-9-----------|
|----------|------------|-----------|-----------------|


  F#sus2
 4/4
  Q  E H    +E    +W
|---------------|--------||
|---------------|--------||
|---------------|--------||
|------6----(6)-|-(6)----||
|----4----------|--------||
|-2-------------|--------||
|
| Q  E H    +E    +W
|---------------|--------||
|---------------|--------||
|---------------|--------||
|------6----(6)-|-(6)----||
|----4----------|--------||
|-2-------------|--------||


   Chorus
    F#5                 E5
   4/4
    Gtr I
    E  E  E  E  E  E  E  E
||-------12----12----12----|
||o---15----15----15----15-|
||-------------------------|
||-------------------------|
||o------------------------|
||-------------------------|
|
|   Gtr II
|   E  E  Q     Q     E  E
||-------------------------|
||o------------------------|
||-------------------------|
||-------------------------|
||o-4--4--4--------------2-|
||--2--2--2--------------0-|


  F#5      E5F#5     G5F#5           E5
   E  E  Q    +Q        +Q      +W                +W
|-12-------------------------|-----------------|---------|
|----15----------------------|-----------------|---------|
|-------11---(11)b12r==(11)--|-(11)------------|-(11)----|
|----------------------------|-----------------|---------|
|----------------------------|-----------------|---------|
|----------------------------|-----------------|---------|
|
|  Q     E E   E     E   Q       Q   E E Q  Q      W
|----------------------------|-----------------|---------|
|----------------------------|-----------------|---------|
|----------------------------|-----------------|---------|
|----------------------------|-----------------|---------|
|--4-------2---4s====5---4---|-------2-2-2-----|---------|
|--2-------0---2s====3---2---|-------0-0-0-----|---------|


  F#5                 E5   F#5      E5 F#5     G5F#5
  E  E  E  E  E  E  E  E    E  E  E  E  +Q        +Q
|------10----10----10----|-10----12--------------------|
|---14----14----14----14-|----14-----------------------|
|------------------------|----------11-(11)b12r==(11)--|
|------------------------|-----------------------------|
|------------------------|-----------------------------|
|------------------------|-----------------------------|
|
| E  E  Q     Q     E  E    Q     E  E   E     E   Q
|------------------------|-----------------------------|
|------------------------|-----------------------------|
|------------------------|-----------------------------|
|------------------------|-----------------------------|
|-4--4--4--------------2-|--4--------2---4s====5---4---|
|-2--2--2--------------0-|--2--------0---2s====3---2---|


                      1.
        E5
   +Q   E E Q  E  E    E  E  E  E  E  E  Q
|-------------------|--------------------------||
|-------------------|-------------------------o||
|-(11)--9-9-9-------|--------------------------||
|-------------------|--------------------------||
|--------------2s12-|-12-12-12-12-14-14-14\---o||
|-------------------|--------------------------||
|
|   Q   E E Q  E  E    E  E  E  E  E  E  Q
|-------------------|--------------------------||
|-------------------|-------------------------o||
|-------------------|--------------------------||
|-------------------|--------------------------||
|-------2-2-2--2s12-|-12-12-12-12-14-14-14\---o||
|-------0-0-0-------|--------------------------||


                            2nd Verse
  2.
                             F#5
                              >
   E  E  E  E  E  E  E  E     W               +H.          +E   +E
|-------------------------||---------------|-------------------------|
|-------------------------||---------------|-------------------------|
|-------------------------||---------------|-------------------------|
|-------------------------||---------------|-------------------------|
|-12-12----14-14----------||---------------|-------------------------|
|-------14-------15-15p14-||-14------------|-(14)---------(14)-(14)s=|
|
|                            Gtr III
|  E  E  E  E  E  E  E  E     Q  E E Q  Q     +E  Q  E Q    Q
|-------------------------||---------------|-------------------------|
|-------------------------||---------------|-------------------------|
|-------------------------||---------0-----|-----------0-------------|
|-------------------------||-------4----4--|--(4)-----------4--------|
|-12-12----14-14----------||-----4---------|---------4---------------|
|-------14-------15-15p14-||--2------------|------2------------------|


  Emadd9                          F#5
    >
    W                +W           W               W
|-----------------|-------------|--------------|-----------------|
|-----------------|-------------|--------------|-----------------|
|-----------------|-------------|--------------|-----------------|
|-----------------|-------------|--------------|-----------------|
|-----------------|-------------|--------------|-----------------|
|-(12)------------|-(12)--------|--------------|-----------------|
|
|   Q   E E Q  Q     +W           Q  E E Q  Q    +E  Q  E Q  Q
|-----------------|-------------|--------------|-----------------|
|-----------------|-------------|--------------|-----------------|
|-----------0-----|-------------|--------0-----|----------0------|
|---------4----4--|--(4)--------|------4----4--|-(4)---------4---|
|-------2---------|-------------|----4---------|--------4--------|
|---0-------------|-------------|-2------------|-----2-----------|


  Emadd9             N.C.           F#5
  Gtr IV
  W               E  Q  E E E E E   Q  Q   Q  Q    +Q    H      Q
|--------------|------------------|--------------|-------------------|
|--------------|------------------|--------------|-------------------|
|--------------|-----0--0---------|--------------|-------------------|
|--------------|----------4p0-4p0-|-4--4---4--4--|-(4)---4------4\---|
|--------------|------------------|--------------|-------------------|
|--------------|------------------|--------------|-------------------|
|
| Q  E E Q  Q    +E  Q  E E E E E   Q  E E Q  Q    +E  Q   E Q  Q
|--------------|------------------|--------------|-------------------|
|--------------|------------------|--------------|-------------------|
|--------0-----|------------------|--------0-----|-----------0-------|
|------4----4--|-(4)------4p0-4p0-|------4----4--|-(4)----------4----|
|----2---------|------------------|----4---------|---------4---------|
|-0------------|-----3--3---------|-2------------|-----2-------------|


  Emadd9                      F#5
  W              +W           Q  Q   Q  Q     Q    Q   Q  Q
|--------------|------------|--------------|-------------------|
|--------------|------------|--------------|-------------------|
|--------------|------------|--------------|-------------------|
|-2------------|-(2)--------|-4--4---4--4--|--4----4---4--4\---|
|--------------|------------|--------------|-------------------|
|--------------|------------|--------------|-------------------|
|
| Q  E E Q  Q    +W           Q  E E Q  Q    +E  Q   E Q  Q
|--------------|------------|--------------|-------------------|
|--------------|------------|--------------|-------------------|
|--------0-----|------------|--------0-----|-----------0-------|
|------4----4--|-(4)--------|------4----4--|-(4)----------4----|
|----2---------|------------|----4---------|---------4---------|
|-0------------|------------|-2------------|-----2-------------|


  Dsus2                            Asus2             Bsus2
                                  3/4
                                   Gtr I
  W               +H.      +Q       H.            +H.
|---------------|----------------|-------------|-------------------|
|---------------|----------------|-------------|-------------------|
|---------------|----------------|-------------|-------------------|
|---------------|----------------|-11----------|-(11)--------------|
|-5-------------|-(5)------(5)\--|-------------|-------------------|
|---------------|----------------|-------------|-------------------|
|
| Q  E H    +E    +W                Q   E Q  E     E E E  E  +Q
|------0----(0)-|-(0)------------|-------------|-------------------|
|---------------|----------------|-------------|-------------------|
|----2----------|----------------|-------------|-------------------|
|-0-------------|----------------|--------9----|---------11-(11)\--|
|---------------|----------------|------7------|-------9-----------|
|---------------|----------------|--5--------5-|---5s7-------------|


  F#sus2                         Asus2      Bsus2
   +H.            +H.             +H.             +H.
|--------------|---------------|---------------|----------------|
|--------------|---------------|---------------|----------------|
|--------------|---------------|---------------|----------------|
|-(11)---------|-(11)----------|-(11)----------|-(11)-----------|
|--------------|---------------|---------------|----------------|
|--------------|---------------|---------------|----------------|
|
| Gtr III
|   Q   E Q.      +H     +E  E     Q   E Q   E     E E E Q  +E
|--------------|---------------|---------------|----------------|
|--------------|---------------|---------------|----------------|
|--------------|---------------|---------------|---7p6-6-9--(9)-|
|---------6----|--(6)----(6)---|---------9-----|----------------|
|-------4------|---------------|-------7-------|----------------|
|---2----------|-------------2-|--/5--------/7-|----------------|


  F#sus2                            Asus2             Bsus2
   Q   E  Q    +E     Q.    E  Q     H.            +H.
|------------------|--------------|-------------|-------------------|
|------------------|--------------|-------------|-------------------|
|------------------|--------------|-------------|-------------------|
|-12--14-11---(11)-|--9----12s11--|-11----------|-(11)--------------|
|------------------|--------------|-------------|-------------------|
|------------------|--------------|-------------|-------------------|
|
| Gtr IV
|  W                  Q.    E  Q    +H.             W
|------------------|--------------|-------------|-------------------|
|------------------|--------3p=2--|-(2)---------|-------------------|
|------------------|--4-----------|-------------|-------------------|
|------------------|--------------|-------------|-------------------|
|------------------|--------------|-------------|-------------------|
|------------------|--------------|-------------|-------------------|
|
| Gtr III
|  Q   E  Q.         +H.             Q   E Q  E     E E E  E  +Q
|------------------|--------------|-------------|-------------------|
|------------------|--------------|-------------|-------------------|
|------------------|--------------|-------------|-------------------|
|---------6--------|-(6)----------|--------9----|---------11-(11)\--|
|------4-----------|--------------|------7------|-------9-----------|
|--2---------------|--------------|--5--------5-|---5s7-------------|


  F#sus2         F#                 A6sus2          Bsus2
   +H        +E   E    Q.   E E E   H.           +H.
|--------------------|------------|------------|------------------|
|--------------------|------------|------------|------------------|
|--------------------|------------|------------|------------------|
|-(11)------(11)-----|-8----9p8s4-|-4----------|-(4)--------------|
|----------------(9)-|------------|------------|------------------|
|--------------------|------------|------------|------------------|
|
|   Q   E Q       E    Q.   E E E   Q   E Q  E    W
|--------------------|------------|------------|------------------|
|--------------------|------------|------------|------------------|
|---------4----------|-3----4p3---|-------4----|------------------|
|-----------------4--|------------|-4---4------|------------------|
|--------------------|----------4-|------------|------------------|
|--------------------|------------|------------|------------------|
|
|   Q   E Q       E    Q.   E E E   Q   E Q  E    E E E  E  +Q
|--------------------|------------|------------|------------------|
|--------------------|------------|------------|------------------|
|--------------------|------------|------------|------------------|
|---------6----------|------------|-------9----|--------11-(11)\--|
|-------4------------|-1----2p1---|-----9----9-|------9-----------|
|---2-------------2--|----------2-|-5----------|--5s7-------------|


  N.C.
                               4/4
                                              ~~~
  E E E E E E    H       +Q     +W           +W
|-------------|---------------|------------|--------||
|-------------|---------------|------------|--------||
|-------------|---------------|------------|--------||
|-5p4-2-5p4-2-|--4pb5r===(4)--|-(4)--------|-(4)----||
|-------------|---------------|------------|--------||
|-------------|---------------|------------|--------||
|
| H.            +H.             +W           +W
|-------------|---------------|------------|--------||
|-------------|---------------|------------|--------||
|-------------|---------------|------------|--------||
|-------------|---------------|------------|--------||
|-------------|---------------|------------|--------||
|-2-----------|-(2)-----------|-(2)--------|-(2)----||


   Chorus
    F#5                 E5
   4/4
    Gtr I
    E  E  E  E  E  E  E  E
||-------10----10----10----|
||o---14----14----14----14-|
||-------------------------|
||-------------------------|
||o------------------------|
||-------------------------|
|
|   Gtr II
|   E  E  Q     Q     E  E
||-------------------------|
||o------------------------|
||-------------------------|
||-------------------------|
||o-4--4--4--------------2-|
||--2--2--2--------------0-|


  F#5      E5F#5     G5F#5           E5
   E  E  Q    +Q        +Q      +W                +W
|-10-------------------------|-----------------|---------|
|----14----------------------|-----------------|---------|
|-------11---(11)b12r==(11)--|-(11)------------|-(11)----|
|----------------------------|-----------------|---------|
|----------------------------|-----------------|---------|
|----------------------------|-----------------|---------|
|
|  Q     E E   E     E   Q       Q   E E Q  Q      W
|----------------------------|-----------------|---------|
|----------------------------|-----------------|---------|
|----------------------------|-----------------|---------|
|----------------------------|-----------------|---------|
|--4-------2---4s====5---4---|-------2-2-2-----|---------|
|--2-------0---2s====3---2---|-------0-0-0-----|---------|


  F#5                 E5   F#5      E5 F#5     G5F#5
  E  E  E  E  E  E  E  E    E  E  E  E  +Q        +Q
|------10----10----10----|-10----12--------------------|
|---14----14----14----14-|----14-----------------------|
|------------------------|----------11-(11)b12r==(11)--|
|------------------------|-----------------------------|
|------------------------|-----------------------------|
|------------------------|-----------------------------|
|
| E  E  Q     Q     E  E    Q     E  E   E     E   Q
|------------------------|-----------------------------|
|------------------------|-----------------------------|
|------------------------|-----------------------------|
|------------------------|-----------------------------|
|-4--4--4--------------2-|--4--------2---4s====5---4---|
|-2--2--2--------------0-|--2--------0---2s====3---2---|


                      1.
        E5
   +Q   E E H         +W
|-------------------|-------------------------||
|-------------------|------------------------o||
|-(11)--9-9-9-------|-(9)---------------------||
|-------------------|-------------------------||
|-------------------|------------------------o||
|-------------------|-------------------------||
|
|   Q   E E Q  E  E    E   E  E  E  Q   Q
|-------------------|-------------------------||
|-------------------|------------------------o||
|-------------------|-------------------------||
|-------------------|--------------12--11\----||
|-------2-2-2--2s12-|-12--12-12-12-10---9\---o||
|-------0-0-0-------|-------------------------||


                            Bridge
  2.
                             N.C.
  +W                         W                W
|-------------------------||---------------|-----------------|
|-------------------------||---------------|-----------------|
|-(9)---------------------||---------------|-----------------|
|-------------------------||---------------|-----------------|
|-------------------------||---------------|-----------------|
|-------------------------||---------------|-----------------|
|
|                            Gtr III
|  E   E  E  E  E  E  Q      E Q  E Q  E E   +E  E Q  E E Q
|-------------------------||---------------|-----------------|
|-------------------------||-------------5-|-(5)-------------|
|-------------------------||---6----6------|-------6------6--|
|-------------------------||-4----4----4---|-----4------4----|
|-12--12-12-12-12-12-12\--||---------------|----------7------|
|-------------------------||---------------|-----------------|

[ Tab from: http://www.guitartabs.cc/tabs/a/a_perfect_circle/pet_tab_ver_3.html ]
  W                H     Q  Q     H.          E E   +W
|---------------|--------------|------------------|------------------|
|---------------|--------------|------------------|------------------|
|---------------|-----------6S=|=14----------13-9-|-(9)--------------|
|---------------|--------------|------------------|------------------|
|---------------|-----------4S=|=12----------11-7-|-(7)--------------|
|---------------|--------------|------------------|------------------|
|
| E Q  E Q  E E   +W              E  Q  E Q   E E   +E  E Q  E E Q
|---------------|--------------|------------------|------------------|
|---------------|--------------|----------------5-|-(5)--------------|
|---6----6----5-|-(5)----------|-----6----6-------|-------6------6---|
|---------------|--------------|--4-----4-----4---|-----4------4-----|
|-7----7----5---|--------------|------------------|----------7-------|
|---------------|--------------|------------------|------------------|


   W                +H.       Q     H.          E E   +H        H
|----------------|---------------|------------------|-------------------|
|----------------|---------------|------------------|-------------------|
|-11-------------|-(11)------11--|-14----------13-9-|-(9)------13-------|
|----------------|---------------|------------------|-------------------|
|--9-------------|--(9)-------9--|-12----------11-7-|-(7)------11-------|
|----------------|---------------|------------------|-------------------|
|
|  E Q  E Q  E E    +W              E  Q  E Q   E E   +E  E Q   E E Q
|----------------|---------------|------------------|-------------------|
|----------------|---------------|----------------5-|-(5)---------------|
|----6----6----5-|--(5)----------|-----6----6-------|-------6-------6---|
|----------------|---------------|--4-----4-----4---|-----4-------4-----|
|--7----7----5---|---------------|------------------|-----------7-------|
|----------------|---------------|------------------|-------------------|


   +W                 H.       Q     H.          E E   +W
|------------------|--------------|------------------|------------------|
|------------------|--------------|------------------|------------------|
|-(13)-------------|-17-------13--|-14----------13-9-|-(9)--------------|
|------------------|--------------|------------------|------------------|
|-(11)-------------|-15-------11--|-12----------11-7-|-(7)--------------|
|------------------|--------------|------------------|------------------|
|
|   E  Q  E Q  E E   +W              E  Q  E Q   E E   +E  E Q  E E Q
|------------------|--------------|------------------|------------------|
|------------------|--------------|----------------5-|-(5)--------------|
|------6----6----5-|-(5)----------|-----6----6-------|-------6------6---|
|------------------|--------------|--4-----4-----4---|-----4------4-----|
|---7-----7----5---|--------------|------------------|----------7-------|
|------------------|--------------|------------------|------------------|


  H.         Q     +W            W                +W
|----------------|------------|----------------|-------------------|
|----------------|------------|----------------|-------------------|
|-6----------9---|-(9)--------|-11-------------|-(11)--------------|
|----------------|------------|----------------|-------------------|
|-4----------7---|-(7)--------|--9-------------|--(9)--------------|
|----------------|------------|----------------|-------------------|
|
| E  Q  E Q  E E   +W            E Q  E Q  E E    +E  E Q  E E Q
|----------------|------------|----------------|-------------------|
|----------------|------------|----------------|-------------------|
|----6----6----5-|-(5)--------|----6----6----7-|--(7)---6------6---|
|----------------|------------|--4----4----4---|------4------4-----|
|-7-----7----5---|------------|----------------|-----------7-------|
|----------------|------------|----------------|-------------------|


   W                     +W
|---------------------|--------------------------||
|---------------------|--------------------------||
|-14------------------|-(14)---------------------||
|---------------------|--------------------------||
|-12------------------|-(12)---------------------||
|---------------------|--------------------------||
|

|  E  Q   E  Q   E  E     E   E  E  E  E  E  Q
|---------------------|--------------------------||
|---------------------|--------------------------||
|---------------------|--------------------------||
|---------------14----|--14-----14-11------------||
|----12-----12-----12-|------12-------11-12-14\--||
|-10-----10-----------|--------------------------||


 Chorus
                G5   F#5           E5 F#5  G5     F#5
  Gtr I
    E  E  E   E  Q     E  E     E   E  Q     E  E  E  E
|---------------------------|---------------------------|
|---------------------------|---------------------------|
|-/14-14-14--14-14\--/14-14-|--14--14-14\--/14-14-14s13-|
|---------------------------|---------------------------|
|-/12-12-12--12-12\--/12-12-|--12--12-12\--/12-12-12s11-|
|---------------------------|---------------------------|
|
| Gtr II
|   Q     Q      Q     Q       +E   E  Q     Q     Q
|---------------------------|---------------------------|
|---------------------------|---------------------------|
|---------------------------|---------------------------|
|---------------12----11----|-(11)----------12----11----|
|---4-----4/----10-----9----|--(9)--2--4----10-----9----|
|---2-----2/----------------|-------0--2----------------|


  E5                             C5              C#5
   Q   +E   Q    +E   Q     +E    Q   +E   Q   E  E
|------------------------|---------------------------|
|------------------------|---------------------------|
|-13--(13)-13---(13)-13--|-(13)--13--(13)-13--13s14--|
|------------------------|---------------------------|
|-11--(11)-11---(11)-11--|-(11)--11--(11)-11--11s12--|
|------------------------|---------------------------|
|
|  Q   +E   E Q       Q     +E    Q   +E   Q   E  E
|------------------------|---------------------------|
|------------------------|---------------------------|
|------------------------|---------------------------|
|--9---(9)--9-9-------9--|--(9)\--5---(5)--5---5--6--|
|--7---(7)--7-7-------7--|--(7)\--3---(3)--3---3--4--|
|------------------------|---------------------------|


  F#5           G5   F#5           E5 F#5  G5     F#5
    E  E  E   E  Q     E  E     E   E  Q     E  E  E  E
|---------------------------|---------------------------|
|---------------------------|---------------------------|
|-/14-14-14--14-14\--/14-14-|--14--14-14\--/14-14-14s13-|
|---------------------------|---------------------------|
|-/12-12-12--12-12\--/12-12-|--12--12-12\--/12-12-12s11-|
|---------------------------|---------------------------|
|
|   Q     Q      Q     Q       +E   E  Q     Q     Q
|---------------------------|---------------------------|
|---------------------------|---------------------------|
|---------------------------|---------------------------|
|---------------12----11----|-(11)----------12----11----|
|---4-----4/----10-----9----|--(9)--2--4----10-----9----|
|---2-----2/----------------|-------0--2----------------|


  E5                 A5
   Q   +E   E  Q   Q       +E   E  Q     Q     Q
|-----------------------|-----------------------------|
|-----------------------|-----------------------------|
|-13--(13)-13-13--11----|-(11)-11-11----11----11------|
|-----------------------|-----------------------------|
|-11--(11)-11-11---9----|--(9)--9--9-----9-----9------|
|-----------------------|-----------------------------|
|
|  Q   +E   E  Q   E  E     E   E  E  E  E  E  E  E
|-----------------------|-----------------------------|
|-----------------------|-----------------------------|
|-----------------------|-----------------------------|
|--9---(9)--9--9---9s14-|--14--14-14-14-14-14-14-14\--|
|--7---(7)--7--7---7s12-|--12--12-12-12-12-12-12-12\--|
|-----------------------|-----------------------------|


  F#5           G5   F#5           E5 F#5  G5     F#5
  Gtr I
    E  E  E   E  Q     E  E     E   E  Q     E  E  E  E
|---------------------------|---------------------------|
|---------------------------|---------------------------|
|-/14-14-14--14-14\--/14-14-|--14--14-14\--/14-14-14s13-|
|---------------------------|---------------------------|
|-/12-12-12--12-12\--/12-12-|--12--12-12\--/12-12-12s11-|
|---------------------------|---------------------------|
|
| Gtr II
|   Q     Q      Q     Q       +E   E  Q     Q     Q
|---------------------------|---------------------------|
|---------------------------|---------------------------|
|---------------------------|---------------------------|
|---------------12----11----|-(11)----------12----11----|
|---4-----4/----10-----9----|--(9)--2--4----10-----9----|
|---2-----2/----------------|-------0--2----------------|


  E5                             C5           C#5
   Q   +E   Q    +E   Q     +E   Q   E  Q  Q
|------------------------|-----------------------|
|------------------------|-----------------------|
|-13--(13)-13---(13)-13--|-(13)--5---5--5--5/----|
|------------------------|-----------------------|
|-11--(11)-11---(11)-11--|-(11)--3---3--3--3/----|
|------------------------|-----------------------|
|
|  Q   +E   E Q       Q     +E   Q  +E  Q  E  E
|------------------------|-----------------------|
|------------------------|-----------------------|
|------------------------|-----------------------|
|--9---(9)--9-9-------9--|--(9)\-5--(5)-5--5--6--|
|--7---(7)--7-7-------7--|--(7)\-3--(3)-3--3--4--|
|------------------------|-----------------------|


  F#5           G5   F#5           E5 F#5   G5    F#5
    E  E  E   E  Q     E  E     E   E  E  E  E  E  E  E
|---------------------------|---------------------------|
|---------------------------|---------------------------|
|-/14-14-14--14-14\--/14-14-|--14--14-14-14-14-14-14s16-|
|---------------------------|---------------------------|
|-/12-12-12--12-12\--/12-12-|--12--12-12-12-12-12-12s14-|
|---------------------------|---------------------------|
|
|   Q     Q      Q     Q       +E   E  Q     Q     Q
|---------------------------|---------------------------|
|---------------------------|---------------------------|
|---------------------------|---------------------------|
|---------------12----11----|-(11)----------12----11----|
|---4-----4/----10-----9----|--(9)--2--4----10-----9----|
|---2-----2/----------------|-------0--2----------------|


  E5                   A5
   Q   +E   E  E  E  Q       E  E  E  E  E  E  Q
|-------------------------|----------------------------||
|-------------------------|----------------------------||
|-16--(16)-16-16s18-18----|-18-18-18-18-19s18-18\------||
|-------------------------|----------------------------||
|-14--(14)-14-14s16-16----|-16-16-16-16-17s16-16\------||
|-------------------------|----------------------------||
|
|  Q   +E   E  Q     E  E    E  E  E  E  E  E  E   E
|-------------------------|----------------------------||
|-------------------------|----------------------------||
|-------------------------|----------------------------||
|--9---(9)--9--9-----9s14-|-14-14-14-14-14-14-14--14\--||
|--7---(7)--7--7-----7s12-|-12-12-12-12-12-12-12--12\--||
|-------------------------|----------------------------||


 Interlude
  A5                     B5              F#5
 3/4
    Q   +E   E  Q      Q    Q    E  E     Q   +E   Q      +E     H     Q
|-------------------|------------------|----------------------|-----------|
|-------------------|------------------|----------------------|-----------|
|-/18--(18)-16-16---|-16---16---16s15--|-15--(15)-15-----(15)-|-15----16--|
|-------------------|------------------|----------------------|-----------|
|-/16--(16)-14-14---|-14---14---14s13--|-13--(13)-13-----(13)-|-13----14--|
|-------------------|------------------|----------------------|-----------|
|
|   Q   +E   E  E E    E E  E E  E  E     Q   +E   E +E    E     H     Q
|-------------------|------------------|----------------------|-----------|
|-------------------|------------------|----------------------|-----------|
|-------------------|------------------|----------------------|-----------|
|-------------------|------------------|----------------------|-----------|
|---7---(7)--7--7-7-|--7-9--9-9--9--9\-|--4---(4)--4-(4)---4--|--4-----4--|
|---5---(5)--5--5-5-|--5-7--7-7--7--7\-|--2---(2)--2-(2)---2--|--2-----2--|


  A5               B5      C5 B5         C#5
   Q   +E   E  +E   E    E  E  Q   Q      E  E  E  E  Q      Q   Q  Q
|---------------------|----------------|------------------|-------------|
|---------------------|----------------|------------------|-------------|
|-18--(18)-16-(16)s21-|-21s20-18--18---|-18s16-15s16-15---|-15--15--9\--|
|---------------------|----------------|------------------|-------------|
|-16--(16)-14-(14)s19-|-19s18-16--16---|-16s14-13s14-13---|-13--13--7\--|
|---------------------|----------------|------------------|-------------|
|
|  Q   +E   E   E   E    E  E  Q   Q      Q     Q     E E    Q   Q  Q
|---------------------|----------------|------------------|-------------|
|---------------------|----------------|------------------|-------------|
|---------------------|----------------|------------------|-------------|
|---------------------|----------------|------------------|-------------|
|--7---(7)--7---7s==9-|--9s10--9---9\--|--4-----4-----4---|--4---4--4---|
|--5---(5)--5---5s==7-|--7s=8--7---7\--|--2-----2-----2-2-|--2---2--2---|


  A5                     B5                 F#5                   G5F#5
  E  Q      E  E  E    E  Q    E  E   E   E  Q   E  E  E   E  Q   E E E
|-------------------|-------------------|----------------|--------------|
|-------------------|-------------------|----------------|--------------|
|-9s11-----11-11-11-|-14s11---11-11--11-|-9s11--11-11-11-|-9s11\--6-6-6-|
|-------------------|-------------------|----------------|--------------|
|-7s=9------9--9--9-|-12s=9----9--9---9-|-7s=9---9--9--9-|-7s=9\--4-4-4-|
|-------------------|-------------------|----------------|--------------|
|
| Q    +E   E  E  E    E  E E  E  Q       E  Q   E  E  E   E  Q   E E E
|-------------------|-------------------|----------------|--------------|
|-------------------|-------------------|----------------|--------------|
|-------------------|-------------------|----------------|--------------|
|-------------------|-------------------|----------------|--------------|
|-7----(7)--7--7--7-|--7--9-9--9--9\----|----4---4--4----|----4---5s4---|
|-5----(5)--5--5--5-|--5--7-7--7--7\----|-0h=2---2--2p=0-|-0h=2---3s2-0-|


  A5                     B5
  E  Q      E  E  E    E  Q    E  E  E
|-------------------|-------------------|
|-------------------|-------------------|
|-9s11-----11-11-11-|-14-11---11-11-15--|
|-------------------|-------------------|
|-7s=9------9--9--9-|-12--9----9--9-13--|
|-------------------|-------------------|
|
| Q    +E   E  E  E    E  E E  E  E  E
|-------------------|-------------------|
|-------------------|-------------------|
|-------------------|-------------------|
|-------------------|-------------------|
|-7----(7)--7--7--7-|--7--9-9--9--9--9\-|
|-5----(5)--5--5--5-|--5--7-7--7--7--7\-|


  F#5
   Q   +E   Q      E    +H                Q
|--------------------|------------------------|
|--------------------|------------------------|
|-15--(15)-16s====18-|-(18)--------------18\--|
|--------------------|------------------------|
|-13--(13)-14h====16-|-(16)--------------16\--|
|--------------------|------------------------|
|
|                             ~~~~~~~~~~~~~~~
|  Q   +E   E +E   E    +Q    S  S  S  S  Q
|--------------------|------------------------|
|--------------------|------------------------|
|--------------------|------------------------|
|--------------------|------------------------|
|--4---(4)--4-(4)--4-|--(4)-------------------|
|--2---(2)--2-(2)--2-|--(2)S=14-14-14-14-14\--|


  A5                      B5                F#5
   E  E  E   E  E  E    E  E  E  E  E  E     E  E  E   E  Q       Q   Q   Q
|--------------------|--------------------|--------------------|--------------|
|--------------------|--------------------|--------------------|--------------|
|-16s18-18--18-18-18-|-18-18-18-18-18-18--|-18s16-15s=16-15----|-15--15--15/--|
|--------------------|--------------------|--------------------|--------------|
|-14s16-16--16-16-16-|-16-16-16-16-16-16--|-16s14-13s=14-13----|-13--13--13/--|
|--------------------|--------------------|--------------------|--------------|
|
|  Q    +E   E  E  E    E  E  E  E  E  E     Q    +E   E +E  E    H       Q
|--------------------|--------------------|--------------------|--------------|
|--------------------|--------------------|--------------------|--------------|
|--------------------|--------------------|--------------------|--------------|
|--------------------|--------------------|--------------------|--------------|
|--7----(7)--7--7--7-|--7--9--9--9--9--9\-|--4----(4)--4-(4)-4-|--4-------4---|
|--5----(5)--5--5--5-|--5--7--7--7--7--7\-|--2----(2)--2-(2)-2-|--2-------2---|


  A5              B5      C5 B5 C5 B5
   E  E  E   E  E  E    E  E  E  E  E   E
|--------------------|--------------------|
|--------------------|--------------------|
|-16s18-18--18-18-18-|-18-18-18-18-18--18-|
|--------------------|--------------------|
|-14s16-16--16-16-16-|-16-16-16-16-16--16-|
|--------------------|--------------------|
|
|  Q    +E   E  E  E    E  E  E  E  Q
|--------------------|--------------------|
|--------------------|--------------------|
|--------------------|--------------------|
|--------------------|--------------------|
|--7----(7)--7--7s=9-|--9s10--9s10--9\----|
|--5----(5)--5--5s=7-|--7s=8--7s=8--7\----|


  F#
   E  E  E   E  Q       Q   Q     Q
|--------------------|-----------------|
|--------------------|-----------------|
|-18s16-15s=16-15----|-15--15----15/---|
|--------------------|-----------------|
|-16s14-13s=14-13----|-13--13----13/---|
|--------------------|-----------------|
|
|  Q    +E   E +E  E    Q  +E  E +E  E
|--------------------|-----------------|
|--------------------|-----------------|
|--------------------|-----------------|
|--------------------|-----------------|
|--4----(4)--4-(4)-4-|--4--(4)-4-(4)-4-|
|--2----(2)--2-(2)-2-|--2--(2)-2-(2)-2-|


  A5                      B5
   E  E  E   E  E  E    E  E  E  E  E   E
|--------------------|--------------------|
|--------------------|--------------------|
|-16s18-18--18-18-18-|-18-18-18-18-18--18-|
|--------------------|--------------------|
|-14s16-16--16-16-16-|-16-16-16-16-16--16-|
|--------------------|--------------------|
|
|  Q    +E   E  E  E    E  E  E  E  Q
|--------------------|--------------------|
|--------------------|--------------------|
|--------------------|--------------------|
|--------------------|--------------------|
|--7----(7)--7--7--7-|--7--9--9--9--9\----|
|--5----(5)--5--5--5-|--5--7--7--7--7\----|


  F#5                         G5F#5
   E  E  E   E  Q      Q    Q    Q
|-------------------|-----------------|
|-------------------|-----------------|
|-18s16-15s=16-15---|-15---15---15/---|
|-------------------|-----------------|
|-16s14-13s=14-13---|-13---13---13/---|
|-------------------|-----------------|
|
|  Q    +E   E  E E    E Q    E  E  E
|-------------------|-----------------|
|-------------------|-----------------|
|-------------------|-----------------|
|-------------------|-----------------|
|--4----(4)--4--4---|----4----5s=4----|
|--2----(2)--2--2p0-|--0h2----3s=2--0-|


  A5                     B5
   E  E  E  E  E  E    Q    +E   Q     +E
|-------------------|-----------------------||
|-11s14-14-14-14-14s|=17---(17)-19----(19)\-||
|-------------------|-----------------------||
|--9s11-11-11-11-11s|=14---(14)-16----(16)\-||
|-------------------|-----------------------||
|-------------------|-----------------------||
|
|  E  E  E  E  E  E    E E   E   E Q
|-------------------|-----------------------||
|-------------------|-----------------------||
|-------------------|-----------------------||
|-------------------|-----------------------||
|--7--7--7--7--7--7-|--7-9---9---9-9\-------||
|--5--5--5--5--5--5-|--5-7---7---7-7\-------||


 Outro
  E5F#5         E5          F#5         E5
  Gtrs I, II
  PM            PM    PM                PM    PM
  E Q  Q  E   E Q  Q  E   E Q  Q  E   E Q  Q  E
|-----------|-----------|-----------|-----------|
|-----------|-----------|-----------|-----------|
|-----------|-----------|-----------|-----------|
|-----------|-----------|-----------|-----------|
|-2-4--4--4-|-4-2--2--2-|-2-4--4--4-|-4-2--2--2-|
|-0-2--2--2-|-2-0--0--0-|-0-2--2--2-|-2-0--0--0-|


    F#5         E5          F#5
  PM            PM    PM
  E Q  Q  E   E Q  Q  E   E Q  Q  E   +E  E H
|-----------|-----------|-----------|------------*|
|-----------|-----------|-----------|------------*|
|-----------|-----------|-----------|------------*|
|-----------|-----------|-----------|------------*|
|-2-4--4--4-|-4-2--2--2-|-2-4--4--4-|-(4)--------*|
|-0-2--2--2-|-2-0--0--0-|-0-2--2--2-|-(2)--------*|


Duration Legend
---------------
W - whole; H - half; Q - quarter; E - 8th; S - 16th; T - 32nd; X - 64th; a - acciaccatura
+ - note tied to previous; . - note dotted; .. - note double dotted
Uncapitalized letters represent notes that are staccato (1/2 duration)
Irregular groupings are notated above the duration line
Duration letters will always appear directly above the note/fret number it represents the
duration for.  Duration letters with no fret number below them represent rests.  Multi-
bar rests are notated in the form Wxn, where n is the number of bars to rest for.  Low
melody durations appear below the staff

Tablature Legend
----------------
 h   - hammer-on
 p   - pull-off
 b   - bend
 pb  - pre-bend
 r   - bend release (if no number after the r, then release immediately)
 /\  - slide into or out of (from/to "nowhere")
 s   - legato slide
 S   - shift slide
  - natural harmonic
[n]  - artificial harmonic
n(n) - tapped harmonic
 ~   - vibrato
 tr  - trill
 T   - tap
 TP  - trem. picking
 PM  - palm muting
\n/  - tremolo bar dip; n = amount to dip
 \n  - tremolo bar down
 n/  - tremolo bar up
/n\  - tremolo bar inverted dip
 =   - hold bend; also acts as connecting device for hammers/pulls
 <>  - volume swell (louder/softer)
 x   - on rhythm slash represents muted slash
 o   - on rhythm slash represents single note slash

Misc Legend
-----------
 |  - bar
||  - double bar
||o - repeat start
o|| - repeat end
*|  - double bar (ending)
 :  - bar (freetime)
 $  - Segno
 &  - Coda
Tempo markers -  = BPM(8/16=s8/s16), where s8 = swing 8ths, s16 = swing 16ths


***************************************************************************************
* Generated using Power Tab Editor by Brad Larsen - http://powertab.guitarnetwork.org *
***************************************************************************************
Comments