A Perfect Circle - Pet Chords & Tabs

 

Pet Chords & Tabs

A Perfect Circle Chords & Tabs

Version: 1 Type: Tab 0 ratings
1 star 2 stars 3 stars 4 stars 5 stars
comments

Pet Tab

   
A Perfect Circle
“Pet”
From the album Thirteenth Step
Tabbed by Alex
tuning- Drop D half a step down (Db Ab Db Gb Bb Eb)

h - hammer on 
p - pull off 
b - bend string up
^ - bend string to the percent to the next note shown (1/4, 1/2, 1, 2)
r - release bend
/ - slide up
\ - slide down
v - vibrato (sometimes written as ~)
t - right hand tap
x - play 'note' with heavy damping
m - palm mute

intro
guitar #1
Eb-----------------------------------
Bb-----------------------------------
Gb-----------------------------------
Db--2-2-2-----0-2---0-2b-2---0-0-0---
Ab--2-2-2-----0-2---0-2b-2---0-0-0---
Db--2-2-2-----0-2---0-2b-2---0-0-0---

Eb----------------------------------------------------------
Bb----------------------------------------------------------
Gb----------------------------------------------------------
Db--2-2-2-----0-2---0-2b-2---0-0-0--------------------------
Ab--2-2-2-----0-2---0-2b-2---0-0-0-5\10-10-10-10-10-10-10---
Db--2-2-2-----0-2---0-2b-2---0-0-0--------------------------

Eb-----------------------------------
Bb-----------------------------------
Gb-----------------------------------
Db--2-2-2-----0-2---0-2b-2---0-0-0---
Ab--2-2-2-----0-2---0-2b-2---0-0-0---
Db--2-2-2-----0-2---0-2b-2---0-0-0---

Eb--------------------------------------------------------------
Bb--------------------------------------------------------------
Gb--------------------------------------------------------------
Db--2-2-2-----0-2---0-2b-2---0-0-0------------0-------0---------
Ab--2-2-2-----0-2---0-2b-2---0-0-0-5\10-10-10---10-10---10-10---
Db--2-2-2-----0-2---0-2b-2---0-0-0------------------------------

guitar #2
Eb--0--0--0--0--0--0--0--0--0--0----------------
Bb--13-14-13-14-13-14-13-14-13-14--------------- \
Gb----------------------------------------------   \
Db--------------------------------14-14h15-14---     \
Ab----------------------------------------------       \
Db----------------------------------------------         \
                                                          2x
Eb--0--0--0--0--0--0--0--0--0--0--------------------     /
Bb--13-14-13-14-13-14-13-14-13-14-------------------   /
Gb-------------------------------------------------- /
Db--------------------------------14-14h15-14--12---
Ab--------------------------------------------------
Db--------------------------------------------------

verse 1
guitar #2
Eb--------------------------------------------------------
Bb--------------------------------------------------------
Gb--------------------------------------------------------
Db------2-3-2-----3-2----------2-3-2-----3-2--------------
Ab----2---------2------------2---------2------------3-3---
Db--2---------2-------0----2---------2-------0--3-3-------

“don’t fret precious i’m here”
Eb-----------------------------------------------------
Bb-----------------------------------------------------
Gb-----------------------------------------------------
Db------2-3-2-----3-2----------5---5\7---7-------4-2---
Ab----2---------2------------5-----5\7-----7---2-------
Db--2---------2-------0----5-----5-----7-----2---------

chorus
guitar #1
Eb-----------------------------------
Bb-----------------------------------
Gb-----------------------------------
Db--2-2-2-----0-2---0-2b-2---0-0-0---
Ab--2-2-2-----0-2---0-2b-2---0-0-0---
Db--2-2-2-----0-2---0-2b-2---0-0-0---

Eb----------------------------------------------------------------
Bb----------------------------------------------------------------
Gb----------------------------------------------------------------
Db--2-2-2-----0-2---0-2b-2---0-0-0--------------------------------
Ab--2-2-2-----0-2---0-2b-2---0-0-0-5\10-10-10-10-10-12-12-12-12---
Db--2-2-2-----0-2---0-2b-2---0-0-0--------------------------------

Eb-----------------------------------
Bb-----------------------------------
Gb-----------------------------------
Db--2-2-2-----0-2---0-2b-2---0-0-0---
Ab--2-2-2-----0-2---0-2b-2---0-0-0---
Db--2-2-2-----0-2---0-2b-2---0-0-0---

Eb------------------------------------------------------------
Bb------------------------------------------------------------
Gb------------------------------------------------------------
Db--2-2-2-----0-2---0-2b-2---0-0-0------------0---------------
Ab--2-2-2-----0-2---0-2b-2---0-0-0-5\10-10-10---12-12-8-8p7---
Db--2-2-2-----0-2---0-2b-2---0-0-0----------------------------

guitar #2
Eb--0--0--0--0--0--0--0--0--0--0-------------------
Bb--14-15-14-15-14-15-14-15-14-15------------------ \
Gb-------------------------------------------------   \
Db--------------------------------14-14-14h15-14---     \
Ab-------------------------------------------------       \
Db-------------------------------------------------         \
                                                            2x
Eb--0--0--0--0--0--0--0--0--0--0--------------------     /
Bb--12-13-12-13-12-13-12-13-12-15-------------------   /
Gb-------------------------------------------------- /
Db--------------------------------14-14h15-14--12---
Ab--------------------------------------------------
Db--------------------------------------------------

verse 2
guitar #2 (hard to hear)
Eb--------------------------------
Bb--------------------------------
Gb--------------------------------
Db------2-3-2-----3-2-----2-3-2---
Ab----2---------2-------2---------
Db--2---------2-------0-----------

guitar #1
Eb--------------------------------------------------------
Bb--------------------------------------------------------
Gb--------------------------------------------------------
Db---------------------------------------------------12---
Ab--(7)-(7)-(8)-(7)--------------(7)-(7)-7-8-7----10------
Db---------------------------------------------10---------
[ Tab from: http://www.guitartabs.cc/tabs/a/a_perfect_circle/pet_tab.html ]
“stay with me”
guitar #2
Eb-----------------------------------------------------------------
Bb-----------------------------------------------------------------
Gb-----------------------------------------------------------------
Db------7-------7-------2-----------------2--------7---------7-----
Ab----5---5---7---7---2--------5--------2--------5---5-----7---7---
Db--5-------7-------2-----2--5--------2-----2--5-------5\7---------

Eb-------------------------------------------------------
Bb-------------------------------------------------------
Gb-------------------------------------------------------
Db------4-2-4h5-5-5/4-----7-------7----------------------
Ab----2-----------------5---5---7---7--------------------
Db--2-----------------5-------7-------3p2-0-3p2-0-3-2v---

guitar #1
Eb----------------------------------------------------------------------
Bb----------------------------------------------------------------------
Gb------------------------0-------0-------------------------------------
Db--9--9-9--9-9--9-9-10p9---12p10---10-9-7-9--9-9-7h9-9-10-6--7--6--7-6-
Ab----------------------------------------------------------------------
Db----------------------------------------------------------------------

Eb-----------
Bb-----------
Gb-------4---
Db--4-2------
Ab-----------
Db-----------

2nd chorus
guitar #1- same as intro

guitar #2
Eb----------------------------------------------
Bb--12h13-12h13-12h13-12h13-12h13---------------
Gb----------------------------------------------
Db--------------------------------14-14h15-14---
Ab----------------------------------------------
Db----------------------------------------------

Eb--------------------------------------------------
Bb--12h13-12h13-12h13-12h13-12h15-------------------
Gb--------------------------------------------------
Db--------------------------------14-14h15-14--12---
Ab--------------------------------------------------
Db--------------------------------------------------

“I’ll be the one to protect you from”
no guitar

“spin to the rhythm of a new world order and”
guitar #1
Eb---------------------------------------------
Bb---------------------------------------------
Gb---------------------------------------------
Db--2-2-2-2-3-2--2-2-2-3-2-7-7-7-7-3-3-3-3-3---
Ab--2-2-2-2-3-2--2-2-2-3-2-5-5-5-5-1-1-1-1-1---
Db--2-2-2-2-3-2--2-2-2-3-2---------------------

Eb-----------------------------------------------
Bb-----------------------------------------------
Gb-----------------------------------------------
Db--2-2-2-2-3-2--2-2-2-3-2-7-7-7-7-5-5-5-5-5-5---
Ab--2-2-2-2-3-2--2-2-2-3-2-5-5-5-5-5-5-5-5-5-5---
Db--2-2-2-2-3-2--2-2-2-3-2---------5-5-5-5-5-5---

Eb---------------------------------------------
Bb---------------------------------------------
Gb---------------------------------------------
Db--2-2-2-2-3-2--2-2-2-3-2-7-7-7-7-3-3-3-3-3---
Ab--2-2-2-2-3-2--2-2-2-3-2-5-5-5-5-1-1-1-1-1---
Db--2-2-2-2-3-2--2-2-2-3-2---------------------

Eb-----------------------------------------------------------
Bb-----------------------------------------------------------
Gb-----------------------------------------------------------
Db--2-2-2-2-3-2--2-2-2-3-2-7-7-7-7-12-12-12-12-12-12-12-12---
Ab--2-2-2-2-3-2--2-2-2-3-2-5-5-5-5-10-10-10-10-10-10-10-10---
Db--2-2-2-2-3-2--2-2-2-3-2-----------------------------------

guitar #2 (heavy wah)
Eb-------------------------|    |----------
Bb-------------------------|    |----------
Gb-------------------------| x3 |----------
Db--17-17^1/4-17^1/2-17^3/4---|    |--12-12---
Ab-------------------------|    |----------
Db-------------------------|    |----------

Eb-------------------------|    |------------
Bb-------------------------|    |------------
Gb-------------------------| x3 |------------
Db--17-17^1/4-17^1/2-17^3/4---|    |--12-12-15--
Ab-------------------------|    |------------
Db-------------------------|    |------------

Eb-------------------------|    |----------
Bb-------------------------|    |----------
Gb-------------------------| x3 |----------
Db--17-17^1/4-17^1/2-17^3/4---|    |--12-12---
Ab-------------------------|    |----------
Db-------------------------|    |----------

Eb-------------------------|    |-----------------------
Bb-------------------------|    |-----------------------
Gb-------------------------| x3 |-----------------------
Db--17-17^1/4-17^1/2-17^3/4---|    |--12-12-15--9-9-10-9---
Ab-------------------------|    |-----------------------
Db-------------------------|    |-----------------------

Solo
guitar #1
Eb------------------------------
Bb------------------------------
Gb------------------------------ throughout the solo
Db--5-5-5-7-7-7-7-2-2-2-2-2-2---
Ab--5-5-5-7-7-7-7-2-2-2-2-2-2---
Db--5-5-5-7-7-7-7-2-2-2-2-2-2---

guitar #2
Eb---------------------------------------------------------------------
Bb---------------------------------------------------------------------
Gb---------------------------------------------------------------------
Db--9-7--7/6-6-6-6-6---9-7-12-12-10-9--9-7-6h7-6-----------------------
Ab-----------------------------------------------5\7-7-10-10/7-7-5-5\7-
Db---------------------------------------------------------------------

Eb----------------------------------------
Bb----------------------------------------
Gb----------------------------------------
Db------------------------------6--7--9---
Ab--7-5-5\7-7-5-5\7-7-10-10/7-7-----------
Db----------------------------------------

Eb----------------------------------------
Bb----------------------------------------
Gb---------------------------------------- x3
Db--7\9-9-9-9-9-9-9-9-9-9-9-7-6h7-6-6\7---
Ab----------------------------------------
Db----------------------------------------
                              “the other ones, the evil ones”
Eb--------------------------| |----------------- 
Bb--------------------------| |-----------------
Gb--------------------------| |-----------------  x3
Db--7\9-9-9-9-9-12-12-14-14-| |--0-2-2-2-2p0-0--
Ab--------------------------| |--0-2-2-2-2p0-0--
Db--------------------------| |--0-2-2-2-2p0-0--
“go back to sleep.”                        M
Eb------------
Bb------------
Gb------------
Db--0-2-2-2---
Ab--0-2-2-2---
Db--0-2-2-2---

sorry about it being so long but i wanted to make it as detailed as i could.
any questions or comments IM or email me at Ibanez7soad@aol.com.
Comments