A Perfect Circle - Pet Chords & Tabs

 

Pet Chords & Tabs

A Perfect Circle Chords & Tabs

Version: 1 Type: Bass Tab 0 ratings
1 star 2 stars 3 stars 4 stars 5 stars
comments

Pet Bass Tab

   
Tuning, Db,Gb,B,E  

(Intro)
E  :------|-----------------------|--------------------------|
B  :------|-----------------------|--------------------------|
Gb :------|-----------------------|--------------------------|
Db :------|2--2--2-----*--------0-|-2------*--0-2----3---2---|

E  :----------------|----------------|-----------------------|
B  :----------------|----------------|-----------------------|
Gb :----------------|----------------|-----------------------|
Db :*---0-0-0---*---|----------------|2--2--2-----*--------0-|

E  :-------------------------|----------------|-----------------|
B  :*------------------------|----------------|----------------*|
Gb :*------------------------|----------------|----------------*|
Db :-2-----*--0-2----3---2---|*---0-0-0-----0-|5---5-5-5-5-5-\--|

E  :-------------|---------------|-------------|------------|--------|
B  :-------------|---------------|-------------|------------|--------|
Gb :-0---0-0---0-|-0-h2----2---2-|-------------|------------|--------|
Db :-------------|---------------|-2-----------|------------|--------|

   (2nd Verse)
E  :--------------------------|-----------------|------------------|
B  :--------------------------|-----------------|------------------|
Gb :9-\-\-\-\-\-\-\-\-\-\-*---|-----------------|------------------|
Db :--------------------------|-----------------|------------------|

 (Chorus)
E  :------|-----------------------|--------------------------|
B  :------|-----------------------|--------------------------|
Gb :------|-----------------------|--------------------------|
Db :------|2--2--2-----*--------0-|-2------*--0-2----3---2---|

E  :----------------|----------------|-----------------------|
B  :----------------|----------------|-----------------------|
Gb :----------------|----------------|-----------------------|
Db :*---0-0-0---*---|----------------|2--2--2-----*--------0-|
[ Tab from: http://www.guitartabs.cc/tabs/a/a_perfect_circle/pet_btab.html ]
E  :-------------------------|----------------|-----------------|
B  :*------------------------|----------------|----------------*|
Gb :*------------------------|----------------|----------------*|
Db :-2-----*--0-2----3---2---|*---0-0-0-----0-|5---5-5-5-5-5-\--|

E  :-------------|---------------|-------------|------------|--------|
B  :-------------|---------------|-------------|------------|--------|
Gb :-0---0-0---0-|-0-h2----2---2-|-------------|------------|--------|
Db :-------------|---------------|-2-----------|------------|--------|

2nd Verse
E  :--------------------------|-----------------|------------------|
B  :--------------------------|-----------------|------------------|
Gb :9-\-\-\-\-\-\-\-\-\-\-*---|-----------------|------------------|
Db :--------------------------|-----------------|------------------|

E  :------|-----------------------|--------------------------|
B  :------|-----------------------|--------------------------|
Gb :------|-----------------------|--------------------------|
Db :------|2--2--2-----*--------0-|-2------*--0-2----3---2---|

E  :----------------|----------------|-----------------------|
B  :----------------|----------------|-----------------------|
Gb :----------------|----------------|-----------------------|
Db :*---0-0-0---*---|----------------|2--2--2-----*--------0-|

E  :-------------------------|----------------|-----------------|
B  :*------------------------|----------------|----------------*|
Gb :*------------------------|----------------|----------------*|
Db :-2-----*--0-2----3---2---|*---0-0-0-----0-|5---5-5-5-5-5-\--|

E  :-------------|---------------|-------------|------------|--------|
B  :-------------|---------------|-------------|------------|--------|
Gb :-0---0-0---0-|-0-h2----2---2-|-------------|------------|--------|
Db :-------------|---------------|-2-----------|------------|--------|

E  :--------------------------|-----------------|------------------|
B  :--------------------------|-----------------|------------------|
Gb :9-\-\-\-\-\-\-\-\-\-\-*---|-----------------|------------------|
Db :--------------------------|-----------------|------------------|
Comments