A Perfect Circle - People Are People Chords & Tabs

 

People Are People Chords & Tabs

A Perfect Circle Chords & Tabs

Version: 1 Type: Bass Tab 0 ratings
1 star 2 stars 3 stars 4 stars 5 stars
comments

People Are People Bass Tab

Band- A Perfect Circle
Song- People Are People


Chorus: (0:53)    2x	    	    	    	    	    	    	    	      
E |--------------------------------------------------------------------------17-18-17|
C |----------------------------------------------------------15-----------15---------|
F#|---------------15-13-10----------------15-13-10--8-8-8-8-8---8-8-8-8-8------------|
C#|-1-3-3--1-3-/13---------1-3-3--1-3-/13--------------------------------------------|
[ Tab from: http://www.guitartabs.cc/tabs/a/a_perfect_circle/people_are_people_btab.html ]
   1st time          2nd time
E |-(15)-15\\-15\\--|-15\\-|
C |-----------------|------|
F#|-----------------|------|
C#|-----------------|------|



(1:44)
E |--------------------------------------------------------------------------------|
C |-------------------------7-7-7-7-------------------------7-7-7-7----------------| 4x
F#|--------------------------------------------------------------------------------|
C#|-1-1-1-1-3-3-3-3-1-1-1-1---------1-1-1-1-3-3-3-3-1-1-1-1------------------------|

(2:09) play Chorus 4x

(2:47) 
E |--------|
C |--------| 1x
F#|-8-8----|
C#|--------|
Comments