A Perfect Circle - Passive Chords & Tabs

 

Passive Chords & Tabs

A Perfect Circle Chords & Tabs

Version: 4 Type: Tab 0 ratings
1 star 2 stars 3 stars 4 stars 5 stars
comments

Passive Tab

   
-------------------------------------------------------------------------------
			     PASSIVE - A Perfect Circle
-------------------------------------------------------------------------------
Tabbed by: Draion
Email: karanfiloz@yahoo.com


                 |
                 |
                 v 
Tuning: C#/F#/B/!F!/G#/C#
                 ^
                 |
                 |


    Intro: (with fingers of course)
e|---------------------------------------------------------------------------|
B|--0---------0-------0---------------0--------0-------0---------------------|
G|-----5---0-----7-------5---------------5--------7-------5------------------|
D|----------------------------4--3-------------------------------------------|
A|----------------------------4--------------------------------4-------------|
E|--6-----(6)/9-------4---------------6------6/9-------4---------------------|

e|---------------------------------------------------------------------------|
B|-----2--------5\4-2h4----2----------------2--------5\4-2h4----2------------|
G|--0----------0--------0----------0h3---0----------0--------0---------------|
D|-------------------------------------------------------------------4---9---|
A|-------------------------------------------------------------------4---9---|
E|-------------------------------------------------------------------4---9---|
 

 
   "wake up..."    "play dead..." "someday..."            "maybe you're..."

    guitar 1: (strum these chords to the rythim of the chorus)                 __
e|---------------------------------------------------------------------------|   |
B|---------------------------------------------------------------------------|   |
G|---------------------------------------------------------------------------|   |
D|--6-------9-------4------6-------6-------9-------4-------6-----------------|   |
A|--6-------9-------4------4-------6-------9-------4-------4-----------------|   |
E|--6-------9-------4--------------6-------9-------4-------------------------|   |
 |                                                                           |   |
 |  guitar 2:                                                                |   |
e|-----6----------------(feedback)----6-----------------(feedback)-----------|   |
B|--4------------------------------4-----------------------------------------|   |
G|---------------------------------------------------------------------------|   >CHORUS
D|---------------------------------------------------------------------------|   |
A|---------------------------------------------------------------------------|   |
E|---------------------------------------------------------------------------|   |
 |                                                                           |   |
 |  piano arranged for guitar:                                               |   |
e|-----6-------------------------------6-------------------------------------|   |
B|--4-----------------------7--6----4------------------------7--6------------|   |
G|------------------3--5----------------------------3--5---------------------|   |
D|---------------------------------------------------------------------------|   |
A|---------------------------------------------------------------------------|   |
E|---------------------------------------------------------------------------| __|
                                                                               

    
    "leaning over you here..."
e|---------------------------------------------------------------------------|
B|---------------------------------------------------------------------------|
G|--^1212121212-12-12-12-121012^1212121212-12-12-12-121012^1212121212--------|
D|--*--------------------------*--------------------------*------------------|
A|---------------------------------------------------------------------------|
E|---------------------------------------------------------------------------|
    *(pre bend a half step)

e|---------------------------------------------------------------------------|
B|---------------------------------------------------------------------------|
G|--12-12-12-12\10-10-10-10/14-14-14-14--------------------------------------|
D|---------------------------------------------------------------------------|
A|---------------------------------------------------------------------------|
E|---------------------------------------------------------------------------|

[ Tab from: http://www.guitartabs.cc/tabs/a/a_perfect_circle/passive_tab_ver_4.html ]
    "...been, it's your right and your ability..."
e|---------------------------------------------------------------------------|
B|---------------------------------------------------------------------------|
G|--^1212121212-12-12-12-121012^1212121212-12-12-12-121012^1212121212--------|
D|--*--------------------------*--------------------------*------------------|
A|---------------------------------------------------------------------------|
E|---------------------------------------------------------------------------|


                 "...my perfect enemy"
e|---------------------------------------------------------------------------|
B|---------------------------------------------------------------------------|
G|--12-12-12-12\2222222233333333---------------------------------------------|
D|---------------------------------------------------------------------------|
A|---------------------------------------------------------------------------|
E|---------------------------------------------------------------------------|



    CHORUS 2...same as 1st chorus exept guitar 2 plays this:
e|-----6-------6------------------------------6-------6----------------------|
B|--4-------4-------------7-7--6--(6)^7^6--4-------4---------------7--6------|
G|---------------------5-----------------------------------5-----------------|
D|---------------------------------------------------------------------------|
A|---------------------------------------------------------------------------|
E|---------------------------------------------------------------------------|


   this is where the song slows down before the last chorus. guitar repeats
   the following:
e|---------------------------------------------------------------------------|
B|---------------------------------------------------------------------------|
G|-----11--------------------------------------------------------------------|
D|--13----13-----------------------------------------------------------------|
A|---------------------------------------------------------------------------|
E|---------------------------------------------------------------------------|

   
    CHORUS 3...same as 1st exept guitar 2 plays:    
e|---------------------------------------------------------------------------|
B|---------------------------------------------------------------------------|
G|--7-/14----7-/14------\5---/10--9------------------------------------------|
D|------------------------------------------repeat once----------------------|
A|--6-/13----6-/13------\4---/9---8------------------------------------------|
E|---------------------------------------------------------------------------|


      "go ahead and play dead   i know that you can hear this
e|-----------------------------------------------------------------|
B|--13-------------------------14----------------------------------|
G|-----------------------------------------------------------------|
D|-----------------------------------------------------------------|
A|-----------------------------------------------------------------|
E|-----------------------------------------------------------------|
    
       go ahead and play dead   why can't you turn and face me
e|-----------------------------------------------------------------|
B|--11--------------9---------7------------------------12---11-----|
G|-----------------------------------------------------------------|
D|-----------------------------------------------------------------|
A|-----------------------------------------------------------------|
E|-----------------------------------------------------------------|

    why can't you turn and face me, why can't you turn and face me,
e|-----------------------------------------------------------------|
B|--12------------------------------14-----------------------------|
G|-----------------------------------------------------------------|
D|-----------------------------------------------------------------|
A|-----------------------------------------------------------------|
E|-----------------------------------------------------------------|

    why can't you turn and face me, you fuckin' dissapoint me"
e|-----------------------------------------------------------------|
B|--12---------------------9--------7--------------------------9---|
G|-----------------------------------------------------------------|
D|-----------------------------------------------------------------|
A|-----------------------------------------------------------------|
E|-----------------------------------------------------------------|

  
   play the intro as maynard repeats "passive aggressive bullshit..."




| /  slide up
| \  slide down
| h  hammer-on
| p  pull-off
| ~  vibrato
| +  harmonic
| x  Mute note
===============================================================================
Comments