A Perfect Circle - Magdalena Chords & Tabs

 

Magdalena Chords & Tabs

A Perfect Circle Chords & Tabs

Version: 3 Type: Tab 0 ratings
1 star 2 stars 3 stars 4 stars 5 stars
comments

Magdalena Tab

   
Band- A Perfect Circle
Song- Magdalena


          E5                   G5                   F#5                  G#5
      0 2 x x x x          3 5 x x x x          2 4 x x x x          4 6 x x x x

Gtr I (Db Gb B E Ab Db) - 'Clean'
Gtr II (Db Gb B E Ab Db) - 'Distortion (w/heavy reverb and delay)'
Gtr III (Db Gb B E Ab Db) - 'Distortion'

   Intro
    Moderately Q=103                             1.               2.
    (E5)                                          G5
   4/4
    Gtr I
    Q  E E H      +H     +Q.   E   Q  Q  E Q  E   +Q   H.           W
||-----0--------|----------------|--------------|---------------||--------|
||o------0------|----------------|----0---------|------0-------o||--------|
||---------3----|-(3)----(3)---3s|=6-------6--4-|-(4)-----------||-(4)----|
||--------------|----------------|-------8------|---------------||--------|
||o-------------|----------------|--------------|--------------o||--------|
||--0-----------|----------------|--------------|---------------||--------|


  E5                                                         G5
  Gtr II
   W           H     +Q.    E    E  E  E.  S  +E   E  E  E    H     Q   E  E
|-16--------|-----------------|----------------------------|-----------------|
|-----------|-17----(17)------|-----------14-(14)----14----|-----------------|
|-----------|--------------14-|-16-14-16----------16----16-|-----------------|
|-----------|-----------------|----------------------------|-14----14--14s12-|
|-----------|-----------------|----------------------------|-----------------|
|-----------|-----------------|----------------------------|-----------------|


  E5
  Gtr II
   W                    W
|-16-----------------|---------------------|
|--------------------|-17------------------|
|--------------------|---------------------|
|--------------------|---------------------|
|--------------------|---------------------|
|--------------------|---------------------|
|
| Gtr I
|  E. S +Q   E E S E.   E. S +E   E Q.   E
|--------------------|---------------------|
|----------------0---|-----0-(0)----0----0-|
|--9---------7-----7S|=11--------11--------|
|-----9-(9)----9-----|---------------------|
|--------------------|---------------------|
|--------------------|---------------------|


                      G5
   +H       H         W
|-------------------|----------------||
|-(17)--------------|----------------||
|-------------------|----------------||
|-------------------|----------------||
|-------------------|----------------||
|-------------------|----------------||
|
|   Q   Q  +E  Q  E   H.      a  Q
|-------------------|----------------||
|---0---0--(0)-0----|---------0-(0)--||
|--11-------------4S|=7-------7h=9---||
|-------------------|----------------||
|-------------------|----------------||
|-------------------|----------------||


 Verse
  E5                                                     G5
  Gtr II
  W                +W                 +W                 W
  |                 |                  |                 |
  /                 /                  /                 /

  Gtr I
  Q  E E E E E E    E E E E E E E E    E E E E E E E E   W
|----0-----0-----|--0-----0-----0---|----0-----0-----0-|------|
|--------0-----0-|------0-----0-----|--0-----0-----0---|------|
|------3-----3---|----3-----3-----3-|------3-----3-----|-3----|
|----------------|------------------|------------------|------|
|----------------|------------------|------------------|------|
|-0--------------|------------------|------------------|------|


    E5                                   G5
    Gtr II
    W          +W           +W           W     3x
||-----------|------------|------------|-------||
||o----------|------------|------------|------o||
||-----------|------------|------------|-------||
||-----------|------------|------------|-------||
||o-2--------|-(2)--------|-(2)--------|-5----o||
||--0--------|-(0)--------|-(0)--------|-3-----||


 Verse
  E5                           F#5
  Gtr II
  Q      Q        H             H.                Q
|----------------------------|------------------------|
|-------12-------11----------|-14----------------14\--|
|--------x--------x----------|--x-----------------x---|
|--------9--------8----------|-11----------------11\--|
|----------------------------|------------------------|
|----------------------------|------------------------|
|
| Gtr III
| S E S  S S S S  S S S S Q     Q   E. S S S S S  Q
|----------------------------|------------------------|
|----------------------------|------------------------|
|-7s9-9--9-9-9-9--9-9-9-9-9--|--9---9--9-9-9-9-9--9---|
|-x---x--x-x-x-x--x-x-x-x-x--|--x---x--x-x-x-x-x--x---|
|-5s7-7--7-7-7-7--7-7-7-7-7--|--7---7--7-7-7-7-7--7---|
|----------------------------|------------------------|


  D5                     C5
  Q  H             Q     Q       E   E   E   E   E     E
|----------------------|------------------------------------|
|-7--7-------------7---|-5-------5---5---5---5---5---/12----|
|-x--x-------------x---|-x-------x---x---x---x---x-----x----|
|-4--4-------------4---|-2-------2---2---2---2---2----/9----|
|----------------------|------------------------------------|
|----------------------|------------------------------------|
|
|                        PM------------------------------|
| Q  E S S S S S S E E   S S S S S S S S S S S S S S   S S
|----------------------|------------------------------------|
|----------------------|------------------------------------|
|-9--9-9-9-9-9-9-9-9-9-|------------------------------------|
|-x--x-x-x-x-x-x-x-x-x-|-5-5-5-5-5-5-5-5-5-5-5-5-5-5---5-5--|
|-7--7-7-7-7-7-7-7-7-7-|-3-3-3-3-3-3-3-3-3-3-3-3-3-3---3-3--|
|----------------------|------------------------------------|


  E5
   Q      Q        Q        Q
|------------------------------|
|-12-----12-------11-------11--|
|--x------x--------x--------x--|
|--9------9--------8--------8--|
|------------------------------|
|------------------------------|
|
|  S E S  S S S S  S S S S  Q
|------------------------------|
|------------------------------|
|--7s9-9--9-9-9-9--9-9-9-9--9--|
|--x---x--x-x-x-x--x-x-x-x--x--|
|--5s7-7--7-7-7-7--7-7-7-7--7--|
|------------------------------|


  F#5                        D5
   Q   Q     Q        E  E    Q   Q      Q        Q
|--------------------------|--------------------------|
|-14--14----14-------14s17-|-17--17-----17-------17---|
|--x---x-----x--------x----|--x---x------x--------x---|
|-11--11----11-------11s14-|-14--14-----14-------14---|
|--------------------------|--------------------------|
|--------------------------|--------------------------|
|
|  Q   E. S  S S S S  Q       Q   E S S  S S S S  E E
|--------------------------|--------------------------|
|--------------------------|--------------------------|
|--9---9--9--9-9-9-9--9----|--9---9-9-9--9-9-9-9--9-9-|
|--x---x--x--x-x-x-x--x----|--x---x-x-x--x-x-x-x--x-x-|
|--7---7--7--7-7-7-7--7----|--7---7-7-7--7-7-7-7--7-7-|
|--------------------------|--------------------------|


  C5
   Q        Q        Q        Q
|-------------------------------------|
|-17-------17-------17-------17-------|
|--x--------x--------x--------x-------|
|-14-------14-------14-------14-------|
|-------------------------------------|
|-------------------------------------|
|
|  PM-------------------------------|
|  S S S S  S S S S  S S S S  S S S S
|-------------------------------------|
|-------------------------------------|
|-------------------------------------|
|--5-5-5-5--5-5-5-5--5-5-5-5--5-5-5-5-|
|--3-3-3-3--3-3-3-3--3-3-3-3--3-3-3-3-|
|-------------------------------------|


  E5
   Q       +H.            +H      +H        +H       H
|----------------------|-----------------|----------------|
|-17b19===(17)---------|-(17)----(17)r===|=(17)-----------|
|----------------------|-----------------|----------------|
|----------------------|-----------------|----------------|
|----------------------|-----------------|----------------|
|----------------------|-----------------|----------------|
|
|                                                <
|  H.             +Q      +W                +Q   H.
|----------------------|-----------------|----------------|
|----------------------|-----------------|----------------|
|----------------------|-----------------|----------------|
|----------------------|-----------------|----------------|
|--2--------------(2)--|--(2)------------|--(2)-----------|
|--0--------------(0)--|--(0)------------|--(0)--5--------|


  G5
  Gtr III
   >
  +W           W          W          W          W
|------------|----------|----------|----------|------||
|------------|----------|----------|----------|------||
|------------|----------|----------|----------|------||
|------------|----------|----------|----------|------||
|------------|----------|----------|----------|------||
|-(5)--------|----------|----------|----------|------||


 Chorus
  E5                           F#5
  Gtr II
  Q      Q        H             H.                Q
|----------------------------|------------------------|
|-------12-------11----------|-14----------------14\--|
|--------x--------x----------|--x-----------------x---|
|--------9--------8----------|-11----------------11\--|
|----------------------------|------------------------|
|----------------------------|------------------------|
|
| Gtr III
| S E S  S S S S  S S S S Q     Q   E. S S S S S  Q
|----------------------------|------------------------|
|----------------------------|------------------------|
|-7s9-9--9-9-9-9--9-9-9-9-9--|--9---9--9-9-9-9-9--9---|
|-x---x--x-x-x-x--x-x-x-x-x--|--x---x--x-x-x-x-x--x---|
|-5s7-7--7-7-7-7--7-7-7-7-7--|--7---7--7-7-7-7-7--7---|
|----------------------------|------------------------|


  D5                     C5
  Q  H             Q     Q       E   E   E   E   E     E
|----------------------|------------------------------------|
|-7--7-------------7---|-5-------5---5---5---5---5---/12----|
|-x--x-------------x---|-x-------x---x---x---x---x-----x----|
|-4--4-------------4---|-2-------2---2---2---2---2----/9----|
|----------------------|------------------------------------|
|----------------------|------------------------------------|
|
|                        PM------------------------------|
| Q  E S S S S S S E E   S S S S S S S S S S S S S S   S S
|----------------------|------------------------------------|
|----------------------|------------------------------------|
|-9--9-9-9-9-9-9-9-9-9-|------------------------------------|
|-x--x-x-x-x-x-x-x-x-x-|-5-5-5-5-5-5-5-5-5-5-5-5-5-5---5-5--|
|-7--7-7-7-7-7-7-7-7-7-|-3-3-3-3-3-3-3-3-3-3-3-3-3-3---3-3--|
|----------------------|------------------------------------|


  E5
   Q      Q        Q        Q
|------------------------------|
|-12-----12-------11-------11--|
|--x------x--------x--------x--|
|--9------9--------8--------8--|
|------------------------------|
|------------------------------|
|
|  S E S  S S S S  S S S S  Q
|------------------------------|
|------------------------------|
|--7s9-9--9-9-9-9--9-9-9-9--9--|
|--x---x--x-x-x-x--x-x-x-x--x--|
|--5s7-7--7-7-7-7--7-7-7-7--7--|
|------------------------------|


  F#5                        D5
   Q   Q     Q        E  E    Q   Q      Q        Q
|--------------------------|--------------------------|
|-14--14----14-------14s17-|-17--17-----17-------17---|
|--x---x-----x--------x----|--x---x------x--------x---|
|-11--11----11-------11s14-|-14--14-----14-------14---|
|--------------------------|--------------------------|
|--------------------------|--------------------------|
|
|  Q   E. S  S S S S  Q       Q   E S S  S S S S  E E
|--------------------------|--------------------------|
|--------------------------|--------------------------|
|--9---9--9--9-9-9-9--9----|--9---9-9-9--9-9-9-9--9-9-|
|--x---x--x--x-x-x-x--x----|--x---x-x-x--x-x-x-x--x-x-|
|--7---7--7--7-7-7-7--7----|--7---7-7-7--7-7-7-7--7-7-|
|--------------------------|--------------------------|


  C5
   Q        Q        Q        Q
|-------------------------------------||
|-17-------17-------17-------17-------||
|--x--------x--------x--------x-------||
|-14-------14-------14-------14-------||
|-------------------------------------||
|-------------------------------------||
|
|  PM-------------------------------|
|  S S S S  S S S S  S S S S  S S S S
|-------------------------------------||
|-------------------------------------||
|-------------------------------------||
|--5-5-5-5--5-5-5-5--5-5-5-5--5-5-5-5-||
|--3-3-3-3--3-3-3-3--3-3-3-3--3-3-3-3-||
|-------------------------------------||


 Guitar Solo
  E5
   E      +E   a       +Q    a       +Q    a       +Q       a     +Q    E  E  Q.      +E
|--------------------------------------------------------|-------------------17b19---(17)--|
|-17b19==(17)-17pb19==(17)--17pb19==(17)--17pb19==(17)r--|-17b19-(17)--17-14---------------|
|--------------------------------------------------------|---------------------------------|
|--------------------------------------------------------|---------------------------------|
|--------------------------------------------------------|---------------------------------|
|--------------------------------------------------------|---------------------------------|
|
|  Q                    Q             H                            Q    Q     H
|--------------------------------------------------------|---------------------------------|
|--------------------------------------------------------|---------------------------------|
|--------------------------------------------------------|---------------------------------|
|--------------------------------------------------------|---------------------------------|
|--2-----------------------------------------------------|---------2-----------------------|
|--0-----------------------------------------------------|---------0-----------------------|


  E5
  Gtr III
    Q            Q             H
    |
    /

  Gtr II
   +Q    a      +Q    a       +Q    a       +Q
|-(17)--------------------------------------------|
|-------17b19==(17)--17pb19==(17)--17pb19==(17)r--|
|-------------------------------------------------|
|-------------------------------------------------|
|-------------------------------------------------|
|-------------------------------------------------|


          Q    Q     H               Q            Q             H
          |                          |
          /                          /

   a     +Q    E  E  Q.      +E     +Q    a      +Q    a       +Q    a       +Q
|-------------------17b19---(17)-|-(17)--------------------------------------------|
|-17b19-(17)--17-14--------------|-------17b19==(17)--17pb19==(17)--17pb19==(17)r--|
|--------------------------------|-------------------------------------------------|
|--------------------------------|-------------------------------------------------|
|--------------------------------|-------------------------------------------------|
|--------------------------------|-------------------------------------------------|


          Q    Q     H
          |
          /

   a     +Q    E  E  Q.      +E
|-------------------17b19---(17)-|
|-17b19-(17)--17-14--------------|
|--------------------------------|
|--------------------------------|
|--------------------------------|
|--------------------------------|


    Q            Q             H                            Q    Q     H
    |                                                       |
    /                                                       /

   +Q    a      +Q    a       +Q    a       +Q       a     +Q    E  E  Q.      +E
|-(17)--------------------------------------------|-------------------17b19---(17)-|
|-------17b19==(17)--17pb19==(17)--17pb19==(17)r--|-17b19-(17)--17-14--------------|
|-------------------------------------------------|--------------------------------|
|-------------------------------------------------|--------------------------------|
|-------------------------------------------------|--------------------------------|
|-------------------------------------------------|--------------------------------|


  F#5                     G#5
    S  S S S S S S S   S  S S S   S  S   S  S
    |  | | | | | | |   |  | | |   |  |   |  |
    /  / / / / / / /   /  / / /   /  /   /  /

   +H                 +Q         +E     +E
|-(17)---------------(17)-------(17)r==(17)---|
|---------------------------------------------|
|---------------------------------------------|
|---------------------------------------------|
|---------------------------------------------|
|---------------------------------------------|


  E5                                     F#5                       G#5
   S S S S S S S S   S  S S S S S  S S    S S  S S  S  S S  S   S  S  S S  S S  S S
   | | | | | | | |   |  | | | | |  | |    | |  | |  |  | |  |   |  |  | |  | |  | |
   / / / / / / / /   /  / / / / /  / /    / /  / /  /  / /  /   /  /  / /  / /  / /

   H                +Q.            E      E    E    E.      S  +E     E    E    E
|-16---------------(16)----------------|--------------------------------------------|
|--------------------------------------|-------------------14-(14)--------14--------|
|---------------------------------14---|-16---14---16----------------16--------16---|
|--------------------------------------|--------------------------------------------|
|--------------------------------------|--------------------------------------------|
|--------------------------------------|--------------------------------------------|


  E5                                 F#5                   G#5
   S S S S S S S S S S S S S S S S    S S S S S S S S   S  S S S   S   S  S S
   | | | | | | | | | | | | | | | |    | | | | | | | |   |  | | |   |   |  | |
   / / / / / / / / / / / / / / / /    / / / / / / / /   /  / / /   /   /  / /
[ Tab from: http://www.guitartabs.cc/tabs/a/a_perfect_circle/magdalena_tab_ver_3.html ]
   W                                  H                +Q         +S   S  E
|----------------------------------|-16---------------(16)-------(16)-17p16---|
|----------------------------------|------------------------------------------|
|----------------------------------|------------------------------------------|
|-14-------------------------------|------------------------------------------|
|----------------------------------|------------------------------------------|
|----------------------------------|------------------------------------------|


  E5
   S S S S S S S S   S  S S S S S  S S
   | | | | | | | |   |  | | | | |  | |
   / / / / / / / /   /  / / / / /  / /

   H                +Q.            E
|--------------------------------------|
|-17---------------(17)----------------|
|---------------------------------14---|
|--------------------------------------|
|--------------------------------------|
|--------------------------------------|


  F#5                      G#5                E5
  Gtr II
   E    E    E.      S  +E    E    E    E      H                +E     Q        E
|-------------------------------------------|---------------------------------------|
|-------------------14-(14)-------14--------|-------------------------16-------14---|
|-16---14---16---------------16--------16---|----------------------------------14---|
|-------------------------------------------|-14---------------(14)-----------------|
|-------------------------------------------|---------------------------------------|
|-------------------------------------------|---------------------------------------|
|
| Gtr III
|  PM--------------------------------------------------------------------|
|  S S  S S  S  S S  S   S S  S S  S S  S S    S S S S S S S S   S  S  S S S S  S S
|-------------------------------------------|---------------------------------------|
|-------------------------------------------|---------------------------------------|
|-------------------------------------------|---------------------------------------|
|-------------------------------------------|---------------------------------------|
|--4-4--4-4--4--4-4--4---4s6--6-6--6-6--6-6-|--2-2-2-2-2-2-2-2---2--2--2-2-2-2--2-2-|
|--2-2--2-2--2--2-2--2---2s4--4-4--4-4--4-4-|--0-0-0-0-0-0-0-0---0--0--0-0-0-0--0-0-|


  F#5                            G#5
                                        ~~~~~~~~~~
   S  E    S  S  E    S  +S       +S   +E     +E     E
|--------------------------------------------------------|
|--------------------------------------------------------|
|---------14-16-14---16-(16)b17==(16)r(16)---(16)--------|
|-14h16---------------------------------------------14---|
|--------------------------------------------------------|
|--------------------------------------------------------|
|
|  S  S S  S  S  S S  S   S        S    S  S   S  S  S S
|--------------------------------------------------------|
|--------------------------------------------------------|
|--------------------------------------------------------|
|--------------------------------------------------------|
|--4--4-4--4--4--4-4--4---4s=======6----6--6---6--6--6-6-|
|--2--2-2--2--2--2-2--2---2s=======4----4--4---4--4--4-4-|


  E5
   S  E    S  +S   E    S  +S   E    S  +S   E.
|---------------------------------------------------|
|-----------------------------------14-(14)---------|
|---------14-(14)------14-(14)-16-----------16------|
|-14-16-----------16--------------------------------|
|---------------------------------------------------|
|---------------------------------------------------|
|
|  S  S S  S   S   S S  S   S   S S  S   S   S  S S
|---------------------------------------------------|
|---------------------------------------------------|
|---------------------------------------------------|
|---------------------------------------------------|
|--2--2-2--2---2---2-2--2---2---2-2--2---2---2--2-2-|
|--0--0-0--0---0---0-0--0---0---0-0--0---0---0--0-0-|


  F#5                     B/D#                     E5
   E.      S  +S   E    S  E    S  S  S  S  S  S    S  E    S  +S   E    S  +S   E    S  +S   E.
|------------------------------------------------|---------------------------------------------------|
|------------------------------------------------|-----------------------------------14-(14)---------|
|---------16-(16)------16------------16-16-16-16-|---------14-(14)------14-(14)-16-----------16------|
|-14--------------14------13---13-13-------------|-14-16-----------16--------------------------------|
|------------------------------------------------|---------------------------------------------------|
|------------------------------------------------|---------------------------------------------------|
|
|  S  S S  S   S   S S  S  S S  S  S  S  S  S  S    S  S S  S   S   S S  S   S   S S  S   S   S  S S
|------------------------------------------------|---------------------------------------------------|
|------------------------------------------------|---------------------------------------------------|
|--------------------------8-8--8--8--8--8--8--8-|---------------------------------------------------|
|--------------------------x-x--x--x--x--x--x--x-|---------------------------------------------------|
|--4--4-4--4---4---4-4--4--6-6--6--6--6--6--6--6-|--2--2-2--2---2---2-2--2---2---2-2--2---2---2--2-2-|
|--2--2-2--2---2---2-2--2------------------------|--0--0-0--0---0---0-0--0---0---0-0--0---0---0--0-0-|


  F#5                        G#5
   E.      S  +S   E    S  E    S  S  S  S  S  S
|------------------------------------------------|
|------------------------------------------------|
|---------16-(16)------16------------16-16-16-16-|
|-14--------------14------13---13-13-------------|
|------------------------------------------------|
|------------------------------------------------|
|
|  S  S S  S   S   S S  S  S S  S  S  S  S  S  S
|------------------------------------------------|
|------------------------------------------------|
|------------------------------------------------|
|------------------------------------------------|
|--4--4-4--4---4---4-4--4--4s6--6--6--6--6--6--6-|
|--2--2-2--2---2---2-2--2--2s4--4--4--4--4--4--4-|


  E5
   S  E    S  +S   E    S  +S   E    S  +S   E.
|---------------------------------------------------|
|-----------------------------------14-(14)---------|
|---------14-(14)------14-(14)-16-----------16------|
|-14-16-----------16--------------------------------|
|---------------------------------------------------|
|---------------------------------------------------|
|
|  S  S S  S   S   S S  S   S   S S  S   S   S  S S
|---------------------------------------------------|
|---------------------------------------------------|
|---------------------------------------------------|
|---------------------------------------------------|
|--2--2-2--2---2---2-2--2---2---2-2--2---2---2--2-2-|
|--0--0-0--0---0---0-0--0---0---0-0--0---0---0--0-0-|


  F#5                     B/D#
   E.      S  +S   E    S  E    S  S  S  S  S  S
|------------------------------------------------|
|------------------------------------------------|
|---------16-(16)------16------------16-16-16-16-|
|-14--------------14------13---13-13-------------|
|------------------------------------------------|
|------------------------------------------------|
|
|  S  S S  S   S   S S  S  S S  S  S  S  S  S  S
|------------------------------------------------|
|------------------------------------------------|
|--------------------------8-8--8--8--8--8--8--8-|
|--------------------------x-x--x--x--x--x--x--x-|
|--4--4-4--4---4---4-4--4--6-6--6--6--6--6--6--6-|
|--2--2-2--2---2---2-2--2------------------------|


  E5
   Q        S  S  S  S  E    S  S  S  S  S  S
|---------------------------------------------||
|---------------------------------------------||
|-16-------16-16-16-16-16---16-16-16-16-16-16-||
|-14-------14-14-14-14-14---14-14-14-14-14-14-||
|---------------------------------------------||
|---------------------------------------------||
|
|  S S S S  S  S  S  S  S S  S  S  S  S  S  S
|---------------------------------------------||
|---------------------------------------------||
|---------------------------------------------||
|---------------------------------------------||
|--2-2-2-2--2--2--2--2--2-2--2--2--2--2--2--2-||
|--0-0-0-0--0--0--0--0--0-0--0--0--0--0--0--0-||


  G5                 A5              E5
   W                                  W
|----------------------------------|----------------------------------|
|----------------------------------|----------------------------------|
|-16-------------------------------|----------------------------------|
|-14-------------------------------|-14-------------------------------|
|----------------------------------|----------------------------------|
|----------------------------------|----------------------------------|
|
|  S S S S S S S S S S S S S S S S    S S S S S S S S S S S S S S S S
|----------------------------------|----------------------------------|
|----------------------------------|----------------------------------|
|----------------------------------|----------------------------------|
|----------------------------------|--9-9-9-9-9-9-9-9-9-9-9-9-9-9-0-0-|
|--5-5-5-5-5-5-5-5-5s7-7-7-7-7-7-7-|--7-7-7-7-7-7-7-7-7-7-7-7-7-7-0-0-|
|--3-3-3-3-3-3-3-3-3s5-5-5-5-5-5-5-|----------------------------------|


  G5                   A5
   +H.                        +Q
|---------------------------------------|
|---------------------------------------|
|---------------------------------------|
|-(14)-----------------------(14)-------|
|---------------------------------------|
|---------------------------------------|
|
|   S  S S S S S S S S S S S   S  S S S
|---------------------------------------|
|---------------------------------------|
|---------------------------------------|
|---------------------------------------|
|---5--5-5-5-5-5-5-5-5s7-7-7---7--7-7-7-|
|---3--3-3-3-3-3-3-3-3s5-5-5---5--5-5-5-|


  E5
   +Q         +H.
|---------------------------------------|
|---------------------------------------|
|---------------------------------------|
|-(14)-------(14)-----------------------|
|---------------------------------------|
|---------------------------------------|
|
|   S  S S S   S  S S S S S S S S S S S
|---------------------------------------|
|---------------------------------------|
|---------------------------------------|
|---9--9-9-9---9--9-9-9-9-9-9-9-9-9-0-0-|
|---7--7-7-7---7--7-7-7-7-7-7-7-7-7-0-0-|
|---------------------------------------|


  G5                   A5              E5
    >
   +W                                  W
|------------------------------------|---------------------------------|
|------------------------------------|---------------------------------|
|------------------------------------|---------------------------------|
|-(14)-------------------------------|---------------------------------|
|------------------------------------|---------------------------------|
|------------------------------------|---------------------------------|
|
|   S  S S S S S S S S S S S S S S S   S S S S S S S S S S S S S S S S
|------------------------------------|---------------------------------|
|------------------------------------|---------------------------------|
|------------------------------------|---------------------------------|
|------------------------------------|-9-9-9-9-9-9-9-9-9-9-9-9-9-9-0-0-|
|---5--5-5-5-5-5-5-5-5s7-7-7-7-7-7-7-|-7-7-7-7-7-7-7-7-7-7-7-7-7-7-0-0-|
|---3--3-3-3-3-3-3-3-3s5-5-5-5-5-5-5-|---------------------------------|


  G5                A5
  Gtr III
  S S S S S S S S S S S S S S S S
|---------------------------------|
|---------------------------------|
|---------------------------------|
|---------------------------------|
|-5-5-5-5-5-5-5-5-5s7-7-7-7-7-7-7-|
|-3-3-3-3-3-3-3-3-3s5-5-5-5-5-5-5-|


                                    Chorus
  E5                                 F#5               G#5
                                     PM----------------------------|
  S S S S S S S S S S S S S S  E     S S S S S S S S S S S S S S S S
|---------------------------------||----------------------------------|
|---------------------------------||----------------------------------|
|---------------------------------||----------------------------------|
|-9-9-9-9-9-9-9-9-9-9-9-9-9-9-----||----------------------------------|
|-7-7-7-7-7-7-7-7-7-7-7-7-7-7-----||----------------------------------|
|-----------------------------14\-||-2-2-2-2-2-2-2-2-2s4-4-4-4-4-4-4--|


  E5                                F#5             D#5
  Gtr II
  W                                 W
|---------------------------------|---------------------------------|
|---------------------------------|---------------------------------|
|---------------------------------|---------------------------------|
|---------------------------------|---------------------------------|
|---------------------------------|---------------------------------|
|---------------------------------|---------------------------------|
|
| Gtr III
| S S S S S S S S S S S S S S S S   S S S S S S S S S S S S S S S S
|---------------------------------|---------------------------------|
|---------------------------------|---------------------------------|
|---------------------------------|---------------------------------|
|---------------------------------|---------------------------------|
|---------------------------------|-----------------6-6-6-6-6-6-6-6-|
|-0-0-0-0-0-0-0-0-0-0-0-0-0-0-0-0-|-2-2-2-2-2-2-2-2-----------------|


  E5
   TP        TP         TP     TP    TP
   Q         Q         +E      E     Q
|---------------------------------------------|
|---------------------------------------------|
|---------------------------------------------|
|---------------------------------------------|
|---------------------------------------------|
|-<5>S======<3>-------(<3>)S==<2>S==<3>-------|
|
|  S  S S S  S  S S S   S   S  S  S  S  S S S
|---------------------------------------------|
|---------------------------------------------|
|---------------------------------------------|
|---------------------------------------------|
|---------------------------------------------|
|--0--0-0-0--0--0-0-0---0---0--0--0--0--0-0-0-|


  F#5               G#5             E5
  Gtr III
  PM--------------------------------------------------------------|
  S S S S S S S S S S S S S S S S   S S S S S S S S S S S S S S S S
|---------------------------------|---------------------------------|
|---------------------------------|---------------------------------|
|---------------------------------|---------------------------------|
|---------------------------------|---------------------------------|
|---------------------------------|---------------------------------|
|-2-2-2-2-2-2-2-2-2s4-4-4-4-4-4-4-|-0-0-0-0-0-0-0-0-0-0-0-0-0-0-0-0-|


  F#5             D#5               E5
  PM----------------------------|
  S S S S S S S S S S S S S S S S   S S S S S S S S S S S S S S S S
|---------------------------------|---------------------------------||
|---------------------------------|---------------------------------||
|---------------------------------|---------------------------------||
|---------------------------------|---------------------------------||
|-----------------6-6-6-6-6-6-6-6-|---------------------------------||
|-2-2-2-2-2-2-2-2-----------------|-0-0-0-0-0-0-0-0-0-0-0-0-0-0-0-0-||


 Outro-Chorus
  G5                A5
  S S S S S S S S S S S S S S S S
|---------------------------------|
|---------------------------------|
|---------------------------------|
|---------------------------------|
|-5-5-5-5-5-5-5-5-5s7-7-7-7-7-7-7-|
|-3-3-3-3-3-3-3-3-3s5-5-5-5-5-5-5-|


  E5                                G5                A5
  S S S S S S S S S S S S S S S S   S S S S S S S S S S S S S S S S
|---------------------------------|---------------------------------|
|---------------------------------|---------------------------------|
|---------------------------------|---------------------------------|
|-9-9-9-9-9-9-9-9-9-9-9-9-9-9-0-0-|---------------------------------|
|-7-7-7-7-7-7-7-7-7-7-7-7-7-7-0-0-|-5-5-5-5-5-5-5-5-5s7-7-7-7-7-7-7-|
|---------------------------------|-3-3-3-3-3-3-3-3-3s5-5-5-5-5-5-5-|


  E5
  S S S S S S S S S S S S S S S S
|---------------------------------|
|---------------------------------|
|---------------------------------|
|-9-9-9-9-9-9-9-9-9-9-9-9-9-9-0-0-|
|-7-7-7-7-7-7-7-7-7-7-7-7-7-7-0-0-|
|---------------------------------|


  G5                A5              E5
  S S S S S S S S S S S S S S S S   S S S S S S S S S S S S S S S S
|---------------------------------|---------------------------------|
|---------------------------------|---------------------------------|
|---------------------------------|---------------------------------|
|---------------------------------|-9-9-9-9-9-9-9-9-9-9-9-9-9-9-0-0-|
|-5-5-5-5-5-5-5-5-5s7-7-7-7-7-7-7-|-7-7-7-7-7-7-7-7-7-7-7-7-7-7-0-0-|
|-3-3-3-3-3-3-3-3-3s5-5-5-5-5-5-5-|---------------------------------|


  G5                A5              E5
  S S S S S S S S S S S S S S S S   S S S S S S S S S S S S S S S S
|---------------------------------|---------------------------------*|
|---------------------------------|---------------------------------*|
|---------------------------------|---------------------------------*|
|---------------------------------|-9-9-9-9-9-9-9-9-9-9-9-9-9-9-9-9-*|
|-5-5-5-5-5-5-5-5-5s7-7-7-7-7-7-7-|-7-7-7-7-7-7-7-7-7-7-7-7-7-7-7-7-*|
|-3-3-3-3-3-3-3-3-3s5-5-5-5-5-5-5-|---------------------------------*|


Duration Legend
---------------
W - whole; H - half; Q - quarter; E - 8th; S - 16th; T - 32nd; X - 64th; a - acciaccatura
+ - note tied to previous; . - note dotted; .. - note double dotted
Uncapitalized letters represent notes that are staccato (1/2 duration)
Irregular groupings are notated above the duration line
Duration letters will always appear directly above the note/fret number it represents the
duration for.  Duration letters with no fret number below them represent rests.  Multi-
bar rests are notated in the form Wxn, where n is the number of bars to rest for.  Low
melody durations appear below the staff

Tablature Legend
----------------
 h   - hammer-on
 p   - pull-off
 b   - bend
 pb  - pre-bend
 r   - bend release (if no number after the r, then release immediately)
 /\  - slide into or out of (from/to "nowhere")
 s   - legato slide
 S   - shift slide
  - natural harmonic
[n]  - artificial harmonic
n(n) - tapped harmonic
 ~   - vibrato
 tr  - trill
 T   - tap
 TP  - trem. picking
 PM  - palm muting
\n/  - tremolo bar dip; n = amount to dip
 \n  - tremolo bar down
 n/  - tremolo bar up
/n\  - tremolo bar inverted dip
 =   - hold bend; also acts as connecting device for hammers/pulls
 <>  - volume swell (louder/softer)
 x   - on rhythm slash represents muted slash
 o   - on rhythm slash represents single note slash

Misc Legend
-----------
 |  - bar
||  - double bar
||o - repeat start
o|| - repeat end
*|  - double bar (ending)
 :  - bar (freetime)
 $  - Segno
 &  - Coda
Tempo markers -  = BPM(8/16=s8/s16), where s8 = swing 8ths, s16 = swing 16ths


***************************************************************************************
* Generated using Power Tab Editor by Brad Larsen - http://powertab.guitarnetwork.org *
***************************************************************************************
Comments