A Perfect Circle - Magdalena Chords & Tabs

 

Magdalena Chords & Tabs

A Perfect Circle Chords & Tabs

Version: 1 Type: Tab 0 ratings
1 star 2 stars 3 stars 4 stars 5 stars
comments

Magdalena Tab

Symbols:
^F - full bend
^.5 - half step bend
r - release bend
/ - slide up
\ - slide down

Intro
|----------|---|-------------|---|-----------|---|----------
|----------|---|-------------|---|-----------|---|----------
|----------|---|-------------|---|---6-------|---|----------
|----6-5-6-|---|5/-8-6-5-6-3-|-6-|-----6-5-6-|---|-5/8-6-5--
|-4--------|---|-------------|---|-4---------|---|----------
|----------|---|-------------|---|-----------|---|----------

|-13-|----|-------------------------|-----|-13-|----|-------
|----|-14-|-------------------------|-----|----|-14-|-------
|----|----|-11/13\11/13/15\13/15\13-|-----|----|----|-------
|----|----|-------------------------|-11--|----|----|---6-5-
|----|----|-------------------------|-----|----|----|-4-----
|----|----|-------------------------|-----|----|----|-------

Verse 1




Chorus
2 guitars - for 1 guitar just play lead riff
|-------|-------|------|------|-------|-------|------|------
|-------|-------|------|------|-------|-------|-14---|-(14)-
|-13-12-|-15----|------|------|-13-12-|-15----|------|------
|-------|-------|-13---|-11---|-------|-------|------|------
|-------|-------|------|------|-------|-------|------|------
|-------|-------|------|------|-------|-------|------|------|
|
| use 8th note strumming
|-------|-------|------|------|-------|-------|------|------
|-------|-------|------|------|-------|-------|------|------
|-13----|-15----|-8----|-6----|-13----|-15----|-8----|-6----
|-------|-------|------|------|-------|-------|------|------
|-11----|-13----|-6----|-4----|-11----|-13----|-6----|-4----
|-------|-------|------|------|-------|-------|------|------


[ Tab from: http://www.guitartabs.cc/tabs/a/a_perfect_circle/magdalena_tab.html ]
Verse 2
|--------|---------|--------|--------|
|--------|---------|--------|--------|
|-6------|---------|--------|--------|  let chord ring
|-6------|---------|--------|--------|      and decay
|-4------|---------|--------|--------|
|--------|---------|--------|--------|

--------rest 4 measures for bass


Repeat Chorus

Fill 1
|-11-------|-11----------14^F-----|
|-16-------|-16--14---------------|
|----------|---------15-----------| play 4
|----------|----------------------| times
|----------|----------------------|
|----------|----------------------|

Solo 
Play lead over Outro (x8)
|-(16)--r--|-13-------|-------------------------|----------|
|----------|----------|-------------------------|----------|
|----------|----------|-11/13\11/13/15\13/15\13-|----------|
|----------|----------|-------------------------|-11-------|
|----------|----------|-------------------------|----------|
|----------|----------|-------------------------|----------|

|-13-^.5r--|----------|-------------------------|----------|
|----------|-14-------|-------------------------|----------|
|----------|----------|-11/13\11/13/15\13/15\13-|----------|
|----------|----------|-------------------------|-11-------|
|----------|----------|-------------------------|----------|
|----------|----------|-------------------------|----------|

|------------------------------|--------------------------|
|------------------------------|--------------------------|
|-----------11-----11-13^.5r~~-|-------------11--13^.5r~~-| 
|-13--11-13-----13-------------|-13--11--13---------------| 
|------------------------------|--------------------------|
|------------------------------|--------------------------|

Outro
|-------|-------|--------|--------|
|-------|-------|--------|--------|
|-------|-------|-6------|-6------| play 4
|-2-----|-4-----|-6------|-6------| times
|-2-----|-4-----|-4------|-4------|
|-0-----|-2-----|--------|--------|


** may not be 100% correct but i tried.. and i think the end of the intro has been cut 
off, not enuff room in this god damn box.. anyway, have a go at this**
Comments