A Perfect Circle - Judith Chords & Tabs

 

Judith Chords & Tabs

A Perfect Circle Chords & Tabs

Version: 8 Type: Tab 0 ratings
1 star 2 stars 3 stars 4 stars 5 stars
comments

Judith Tab

Ok heres the deal, this tab may have been right on this site and many others but i think it sucks that u have to detune your whole freakin guitar just to make it sound right so i got down one day and figured out the way to play Judith on STANDARD TUNING. here it goes, and its right cuz im smart like that. Comments? Questions....addy at the bottom....have fun.
s = slide

e---------------------------------------------
B---------------------------------------------
G-4s6-6-6-x-x-4s6-7s6s4s6--4s6-6-6-6s16-16-15- three times
D-x-x-x-x-x-x-x-x-x-x-x-x--x-x-x-x-x-x--x--x--
A-2s4-4-4-x-x-2s4-5s4s2s4--2s4-4-4-4s14-14-13-
E---------------------------------------------

----------------------------------------------
-0-2-2-2-2-2-0-2-3-2-0-2-0-2-2-2-2-0----------
----------------------------------------------  
--------------------------------------2-2-2s4-
----------------------------------------------
----------------------------------------------
[ Tab from: http://www.guitartabs.cc/tabs/a/a_perfect_circle/judith_tab_ver_8.html ]
----------------------------------------------
----------------------------------------------
---------R------------------------------------ three times
-4-6-6-6-E-6-4-6-7-6-4-6-4-6-6-6-6-4----------  
-2-4-4-4-S-4-2-4-5-4-2-4-2-4-4-4-4-2-2-2-2-4-- 
---------T---------------------------0-0-0-2--

in the measure above, there are slides between each chord i just did put the little "s" cuz it made the tab look confusing.

----------------------------------------------
----------------------------------------------
--12-12-12-12s11-11-11-11-11------------------
---x--x--x--x--x--x--x--x--x------------------
--10-10-10-10s-9--9--9--9--9------------------
----------------------------------------------

-----------------------
-----------------------
-6-6-6-6s7s6-6-6-------
-x-x-x-x-x-x-x-x-------
-4-4-4-4s5s4-4-4-------
-----------------------

i dont have the little solo yet, but i think i will within a week......my email address is dot.dot@dom.ath.cx

Comments